  0
SECTION
  2
HEADER
  9
$ACADVER
  1
AC1015
  9
$ACADMAINTVER
 70
     6
  9
$DWGCODEPAGE
  3
ANSI_932
  9
$INSBASE
 10
0.0
 20
0.0
 30
0.0
  9
$EXTMIN
 10
-210.0
 20
-148.5
 30
1.000000E+20
  9
$EXTMAX
 10
210.0
 20
148.5
 30
-1.000000E+20
  9
$LIMMIN
 10
-210.0
 20
-148.5
  9
$LIMMAX
 10
210.0
 20
148.5
  9
$ORTHOMODE
 70
     0
  9
$REGENMODE
 70
     1
  9
$FILLMODE
 70
     1
  9
$QTEXTMODE
 70
     0
  9
$MIRRTEXT
 70
     1
  9
$LTSCALE
 40
1.0
  9
$ATTMODE
 70
     1
  9
$TEXTSIZE
 40
0.2
  9
$TRACEWID
 40
0.05
  9
$TEXTSTYLE
  7
STANDARD
  9
$CLAYER
  8
0
  9
$CELTYPE
  6
CONTINUOUS
  9
$CECOLOR
 62
   256
  9
$CELTSCALE
 40
1.0
  9
$DISPSILH
 70
     0
  9
$DIMSCALE
 40
1.0
  9
$DIMASZ
 40
2.0
  9
$DIMEXO
 40
1.0
  9
$DIMDLI
 40
0.38
  9
$DIMRND
 40
0.0
  9
$DIMDLE
 40
0.0
  9
$DIMEXE
 40
2.0
  9
$DIMTP
 40
0.0
  9
$DIMTM
 40
0.0
  9
$DIMTXT
 40
3.5
  9
$DIMCEN
 40
0.09
  9
$DIMTSZ
 40
0.0
  9
$DIMTOL
 70
     0
  9
$DIMLIM
 70
     0
  9
$DIMTIH
 70
     0
  9
$DIMTOH
 70
     0
  9
$DIMSE1
 70
     0
  9
$DIMSE2
 70
     0
  9
$DIMTAD
 70
     1
  9
$DIMZIN
 70
     0
  9
$DIMBLK
  1

  9
$DIMASO
 70
     1
  9
$DIMSHO
 70
     1
  9
$DIMPOST
  1

  9
$DIMAPOST
  1

  9
$DIMALT
 70
     0
  9
$DIMALTD
 70
     2
  9
$DIMALTF
 40
25.4
  9
$DIMLFAC
 40
1.0
  9
$DIMTOFL
 70
     0
  9
$DIMTVP
 40
0.0
  9
$DIMTIX
 70
     0
  9
$DIMSOXD
 70
     0
  9
$DIMSAH
 70
     0
  9
$DIMBLK1
  1

  9
$DIMBLK2
  1

  9
$DIMSTYLE
  2
Standard
  9
$DIMCLRD
 70
     0
  9
$DIMCLRE
 70
     0
  9
$DIMCLRT
 70
     0
  9
$DIMTFAC
 40
1.0
  9
$DIMGAP
 40
0.5
  9
$DIMJUST
 70
     0
  9
$DIMSD1
 70
     0
  9
$DIMSD2
 70
     0
  9
$DIMTOLJ
 70
     1
  9
$DIMTZIN
 70
     0
  9
$DIMALTZ
 70
     0
  9
$DIMALTTZ
 70
     0
  9
$DIMUPT
 70
     0
  9
$DIMDEC
 70
     3
  9
$DIMTDEC
 70
     4
  9
$DIMALTU
 70
     2
  9
$DIMALTTD
 70
     2
  9
$DIMTXSTY
  7
STANDARD
  9
$DIMAUNIT
 70
     0
  9
$DIMADEC
 70
     2
  9
$DIMALTRND
 40
0.0
  9
$DIMAZIN
 70
     0
  9
$DIMDSEP
 70
     0
  9
$DIMATFIT
 70
     3
  9
$DIMFRAC
 70
     0
  9
$DIMLDRBLK
  1

  9
$DIMLUNIT
 70
     2
  9
$DIMLWD
 70
     0
  9
$DIMLWE
 70
     0
  9
$DIMTMOVE
 70
     0
  9
$LUNITS
 70
     2
  9
$LUPREC
 70
     4
  9
$SKETCHINC
 40
0.1
  9
$FILLETRAD
 40
0.0
  9
$AUNITS
 70
     0
  9
$AUPREC
 70
     0
  9
$MENU
  1
acad
  9
$ELEVATION
 40
0.0
  9
$PELEVATION
 40
0.0
  9
$THICKNESS
 40
0.0
  9
$LIMCHECK
 70
     0
  9
$CHAMFERA
 40
0.0
  9
$CHAMFERB
 40
0.0
  9
$CHAMFERC
 40
0.0
  9
$CHAMFERD
 40
0.0
  9
$SKPOLY
 70
     0
  9
$TDCREATE
 40
2459501.000000000
  9
$TDUCREATE
 40
0.000000000
  9
$TDUPDATE
 40
0.000000000
  9
$TDUUPDATE
 40
2447892.625000000
  9
$TDINDWG
 40
0.0000000000
  9
$TDUSRTIMER
 40
0.0000000000
  9
$USRTIMER
 70
     1
  9
$ANGBASE
 50
0.0
  9
$ANGDIR
 70
     0
  9
$PDMODE
 70
     0
  9
$PDSIZE
 40
0.0
  9
$PLINEWID
 40
0.0
  9
$SPLFRAME
 70
     0
  9
$SPLINETYPE
 70
     6
  9
$SPLINESEGS
 70
     8
  9
$HANDSEED
  5
1CA
  9
$SURFTAB1
 70
     6
  9
$SURFTAB2
 70
     6
  9
$SURFTYPE
 70
     6
  9
$SURFU
 70
     6
  9
$SURFV
 70
     6
  9
$UCSBASE
  2

  9
$UCSNAME
  2

  9
$UCSORG
 10
0.0
 20
0.0
 30
0.0
  9
$UCSXDIR
 10
1.0
 20
0.0
 30
0.0
  9
$UCSYDIR
 10
0.0
 20
1.0
 30
0.0
  9
$UCSORTHOREF
  2

  9
$UCSORTHOVIEW
 70
     0
  9
$UCSORGTOP
 10
0.0
 20
0.0
 30
0.0
  9
$UCSORGBOTTOM
 10
0.0
 20
0.0
 30
0.0
  9
$UCSORGLEFT
 10
0.0
 20
0.0
 30
0.0
  9
$UCSORGRIGHT
 10
0.0
 20
0.0
 30
0.0
  9
$UCSORGFRONT
 10
0.0
 20
0.0
 30
0.0
  9
$UCSORGBACK
 10
0.0
 20
0.0
 30
0.0
  9
$PUCSBASE
  2

  9
$PUCSNAME
  2

  9
$PUCSORG
 10
0.0
 20
0.0
 30
0.0
  9
$PUCSXDIR
 10
1.0
 20
0.0
 30
0.0
  9
$PUCSYDIR
 10
0.0
 20
1.0
 30
0.0
  9
$PUCSORTHOREF
  2

  9
$PUCSORTHOVIEW
 70
     0
  9
$PUCSORGTOP
 10
0.0
 20
0.0
 30
0.0
  9
$PUCSORGBOTTOM
 10
0.0
 20
0.0
 30
0.0
  9
$PUCSORGLEFT
 10
0.0
 20
0.0
 30
0.0
  9
$PUCSORGRIGHT
 10
0.0
 20
0.0
 30
0.0
  9
$PUCSORGFRONT
 10
0.0
 20
0.0
 30
0.0
  9
$PUCSORGBACK
 10
0.0
 20
0.0
 30
0.0
  9
$USERI1
 70
     0
  9
$USERI2
 70
     0
  9
$USERI3
 70
     0
  9
$USERI4
 70
     0
  9
$USERI5
 70
     0
  9
$USERR1
 40
0.0
  9
$USERR2
 40
0.0
  9
$USERR3
 40
0.0
  9
$USERR4
 40
0.0
  9
$USERR5
 40
0.0
  9
$WORLDVIEW
 70
     1
  9
$SHADEDGE
 70
     3
  9
$SHADEDIF
 70
    70
  9
$TILEMODE
 70
     1
  9
$MAXACTVP
 70
    16
  9
$PINSBASE
 10
0.0
 20
0.0
 30
0.0
  9
$PLIMCHECK
 70
     0
  9
$PEXTMIN
 10
1.000000E+20
 20
1.000000E+20
 30
1.000000E+20
  9
$PEXTMAX
 10
-1.000000E+20
 20
-1.000000E+20
 30
-1.000000E+20
  9
$PLIMMIN
 10
0.0
 20
0.0
  9
$PLIMMAX
 10
12.0
 20
9.0
  9
$UNITMODE
 70
     0
  9
$VISRETAIN
 70
     0
  9
$PLINEGEN
 70
     1
  9
$PSLTSCALE
 70
     0
  9
$TREEDEPTH
 70
  3020
  9
$CMLSTYLE
  2
Standard
  9
$CMLJUST
 70
     0
  9
$CMLSCALE
 40
1.0
  9
$PROXYGRAPHICS
 70
     0
  9
$MEASUREMENT
 70
     0
  9
$CELWEIGHT
370
     0
  9
$ENDCAPS
280
     0
  9
$JOINSTYLE
280
     0
  9
$LWDISPLAY
290
     0
  9
$INSUNITS
 70
     0
  9
$HYPERLINKBASE
  1

  9
$STYLESHEET
  1

  9
$XEDIT
290
     1
  9
$CEPSNTYPE
380
     0
  9
$PSTYLEMODE
290
     1
  9
$FINGERPRINTGUID
  2

  9
$VERSIONGUID
  2

  9
$EXTNAMES
290
     1
  9
$PSVPSCALE
 40
0.0
  0
ENDSEC
  0
SECTION
  2
CLASSES
  0
CLASS
  1
LWPOLYLINE
  2
AcDbPolyline
  3
AutoCAD 2000
 90
        0
280
     0
281
     1
  0
CLASS
  1
IMAGE
  2
AcDbRasterImage
  3
ISM
 90
      127
280
     0
281
     1
  0
CLASS
  1
OLE2FRAME
  2
AcDbOle2Frame
  3
AutoCAD 2000
 90
        0
280
     0
281
     1
  0
CLASS
  1
HATCH
  2
AcDbHatch
  3
AutoCAD 2000
 90
        0
280
     0
281
     1
  0
CLASS
  1
DICTIONARYVAR
  2
AcDbDictionaryVar
  3
AutoCAD 2000
 90
        0
280
     0
281
     0
  0
CLASS
  1
RASTERVARIABLES
  2
AcDbRasterVariables
  3
ISM
 90
        0
280
     0
281
     0
  0
CLASS
  1
IMAGEDEF
  2
AcDbRasterImageDef
  3
ISM
 90
        0
280
     0
281
     0
  0
CLASS
  1
IMAGEDEF_REACTOR
  2
AcDbRasterImageDefReactor
  3
ISM
 90
        1
280
     0
281
     0
  0
CLASS
  1
IDBUFFER
  2
AcDbIdBuffer
  3
AutoCAD 2000
 90
        0
280
     0
281
     0
  0
CLASS
  1
SPATIAL_FILTER
  2
AcDbSpatialFilter
  3
AutoCAD 2000
 90
        0
280
     0
281
     0
  0
CLASS
  1
XRECORD
  2
AcDbXrecord
  3
AutoCAD 2000
 90
        0
280
     0
281
     0
  0
CLASS
  1
SORTENTSTABLE
  2
AcDbSortentsTable
  3
AutoCAD 2000
 90
        0
280
     0
281
     0
  0
CLASS
  1
LAYER_INDEX
  2
AcDbLayerIndex
  3
AutoCAD 2000
 90
        0
280
     0
281
     0
  0
CLASS
  1
SPATIAL_INDEX
  2
AcDbSpatialIndex
  3
AutoCAD 2000
 90
        0
280
     0
281
     0
  0
CLASS
  1
OBJECT_PTR
  2
CAseDLPNTableRecord
  3
"ASE-LPNTableRecord"
 90
        1
280
     0
281
     0
  0
CLASS
  1
LAYOUT
  2
AcDbLayout
  3
AutoCAD 2000
 90
        0
280
     0
281
     0
  0
CLASS
  1
PLOTSETTINGS
  2
AcDbPlotSettings
  3
AutoCAD 2000
 90
        0
280
     0
281
     0
  0
CLASS
  1
ACDBDICTIONARYWDFLT
  2
AcDbDictionaryWithDefault
  3
AutoCAD 2000
 90
        0
280
     0
281
     0
  0
CLASS
  1
ACDBPLACEHOLDER
  2
AcDbPlaceHolder
  3
AutoCAD 2000
 90
        0
280
     0
281
     0
  0
CLASS
  1
VBA_PROJECT
  2
AcDbVbaProject
  3
acadvba
 90
        0
280
     0
281
     0
  0
CLASS
  1
WIPEOUT
  2
AcDbWipeout
  3
WipeOut|AutoCAD Express Tool|expresstools@autodesk.com
 90
      127
280
     0
281
     1
  0
CLASS
  1
WIPEOUTVARIABLES
  2
AcDbWipeoutVariables
  3
WipeOut|AutoCAD Express Tool|expresstools@autodesk.com
 90
        0
280
     0
281
     0
  0
CLASS
  1
RTEXT
  2
RText
  3
RText|AutoCAD Express Tool|expresstools@autodesk.com
 90
        0
280
     0
281
     1
  0
CLASS
  1
ARCALIGNEDTEXT
  2
AcDbArcAlignedText
  3
ATEXT|AutoCAD Express Tool|expresstools@autodesk.com
 90
        0
280
     0
281
     1
  0
ENDSEC
  0
SECTION
  2
TABLES
  0
TABLE
  2
VPORT
  5
6
100
AcDbSymbolTable
 70
     1
  0
VPORT
  5
19
100
AcDbSymbolTableRecord
100
AcDbViewportTableRecord
  2
*ACTIVE
 70
     0
 10
0.0
 20
0.0
 11
1.0
 21
1.0
 12
0.0
 22
0.0
 13
0.0
 23
0.0
 14
1.0
 24
1.0
 15
0.0
 25
0.0
 16
0.0
 26
0.0
 36
1.0
 17
0.0
 27
0.0
 37
0.0
 40
297.0
 41
1.414141
 42
50.0
 43
0.0
 44
0.0
 50
0.0
 51
0.0
 71
     0
 72
   500
 73
     1
 74
     1
 75
     0
 76
     0
 77
     0
 78
     0
281
     0
 65
     0
110
0.0
120
0.0
130
0.0
111
1.0
121
0.0
131
0.0
112
0.0
122
1.0
132
0.0
345
0
346
0
 79
     0
146
0.0
  0
ENDTAB
  0
TABLE
  2
LTYPE
  5
3
100
AcDbSymbolTable
 70
     9
  0
LTYPE
  5
C
100
AcDbSymbolTableRecord
100
AcDbLinetypeTableRecord
  2
ByBlock
 70
    64
  3

 72
    65
 73
     0
 40
0.0
  0
LTYPE
  5
D
100
AcDbSymbolTableRecord
100
AcDbLinetypeTableRecord
  2
ByLayer
 70
    64
  3

 72
    65
 73
     0
 40
0.0
  0
LTYPE
  5
E
100
AcDbSymbolTableRecord
100
AcDbLinetypeTableRecord
  2
CONTINUOUS
 70
     0
  3
Solid line
 72
    65
 73
     0
 40
0.0
  0
LTYPE
  5
F
100
AcDbSymbolTableRecord
100
AcDbLinetypeTableRecord
  2
DASHED
 70
     0
  3
__ __ __ __ __ __ __ __ __ __ __ __ __ __ __
 72
    65
 73
     2
 40
2.0
 49
1.2
 74
     0
 49
-0.8
 74
     0
  0
LTYPE
  5
10
100
AcDbSymbolTableRecord
100
AcDbLinetypeTableRecord
  2
CENTER
 70
     0
  3
____ _ ____ _ ____ _ ____ _ ____ _ ____ _ ____
 72
    65
 73
     4
 40
12.0
 49
9.0
 74
     0
 49
-1.0
 74
     0
 49
1.0
 74
     0
 49
-1.0
 74
     0
  0
LTYPE
  5
11
100
AcDbSymbolTableRecord
100
AcDbLinetypeTableRecord
  2
HIDDEN
 70
     0
  3
_ _ _ _ _ _ _ _ _ _ _ _ _ _ _ _ _ _ _ _ _ _ _
 72
    65
 73
     2
 40
3.2
 49
2.4
 74
     0
 49
-0.8
 74
     0
  0
LTYPE
  5
12
100
AcDbSymbolTableRecord
100
AcDbLinetypeTableRecord
  2
PHANTOM
 70
     0
  3
_____ _ _ _____ _ _ _____ _ _ _____ _ _ _____
 72
    65
 73
     6
 40
13.5
 49
9.0
 74
     0
 49
-1.0
 74
     0
 49
1.0
 74
     0
 49
-0.5
 74
     0
 49
1.0
 74
     0
 49
-1.0
 74
     0
  0
LTYPE
  5
13
100
AcDbSymbolTableRecord
100
AcDbLinetypeTableRecord
  2
DOT
 70
     0
  3
...............................................
 72
    65
 73
     2
 40
1.0
 49
0.5
 74
     0
 49
-0.5
 74
     0
  0
LTYPE
  5
14
100
AcDbSymbolTableRecord
100
AcDbLinetypeTableRecord
  2
DASHDOT
 70
     0
  3
__ . __ . __ . __ . __ . __ . __ . __ . __ . __
 72
    65
 73
     4
 40
8.0
 49
5.0
 74
     0
 49
-1.0
 74
     0
 49
1.0
 74
     0
 49
-1.0
 74
     0
  0
ENDTAB
  0
TABLE
  2
LAYER
  5
1
100
AcDbSymbolTable
 70
     4
  0
LAYER
  5
15
100
AcDbSymbolTableRecord
100
AcDbLayerTableRecord
  2
0
 70
     0
 62
   225
  6
CONTINUOUS
290
     1
370
    -3
390
0
  0
LAYER
  5
16
100
AcDbSymbolTableRecord
100
AcDbLayerTableRecord
  2
1
 70
     0
 62
     2
  6
CONTINUOUS
290
     1
370
    -3
390
0
  0
LAYER
  5
17
100
AcDbSymbolTableRecord
100
AcDbLayerTableRecord
  2
2
 70
     0
 62
     3
  6
CONTINUOUS
290
     1
370
    -3
390
0
  0
LAYER
  5
18
100
AcDbSymbolTableRecord
100
AcDbLayerTableRecord
  2
3
 70
     0
 62
     4
  6
CONTINUOUS
290
     1
370
    -3
390
0
  0
ENDTAB
  0
TABLE
  2
STYLE
  5
2
100
AcDbSymbolTable
 70
     1
  0
STYLE
  5
1B
100
AcDbSymbolTableRecord
100
AcDbTextStyleTableRecord
  2
STANDARD
 70
    64
 40
0.0
 41
1.0
 50
0.0
 71
     0
 42
1.0
  3
txt
  4
BIGFONT
  0
ENDTAB
  0
TABLE
  2
VIEW
  5
4
100
AcDbSymbolTable
 70
     0
  0
ENDTAB
  0
TABLE
  2
UCS
  5
5
100
AcDbSymbolTable
 70
     0
  0
ENDTAB
  0
TABLE
  2
APPID
  5
7
100
AcDbSymbolTable
 70
     1
  0
APPID
  5
1A
100
AcDbSymbolTableRecord
100
AcDbRegAppTableRecord
  2
ACAD
 70
     0
  0
ENDTAB
  0
TABLE
  2
DIMSTYLE
  5
8
100
AcDbSymbolTable
 70
     1
100
AcDbDimStyleTable
 71
     0
  0
DIMSTYLE
105
23
100
AcDbSymbolTableRecord
100
AcDbDimStyleTableRecord
  2
Standard
 70
     0
  3

  4

 40
1.0
 41
2.0
 42
1.0
 43
0.38
 44
2.0
 45
0.0
 46
0.0
 47
0.0
 48
0.0
 71
     0
 72
     0
 73
     0
 74
     0
 75
     0
 76
     0
 77
     1
 78
     0
 79
     0
140
3.5
141
0.09
142
0.0
143
25.4
144
1.0
145
0.0
146
1.0
147
0.5
148
0.0
170
     0
171
     2
172
     0
173
     0
174
     0
175
     0
176
     0
177
     0
178
     0
179
     0
271
     3
272
     4
273
     2
274
     2
275
     0
276
     0
277
     2
278
    46
279
     0
280
     0
281
     0
282
     0
283
     1
284
     0
285
     0
286
     0
288
     0
289
     3
340
1B
341
0
342
0
343
0
344
0
371
    -2
372
    -2
  0
ENDTAB
  0
TABLE
  2
BLOCK_RECORD
  5
1E
100
AcDbSymbolTable
 70
     0
  0
BLOCK_RECORD
  5
1C
100
AcDbSymbolTableRecord
100
AcDbBlockTableRecord
  2
*Model_Space
340
0
  0
BLOCK_RECORD
  5
1D
100
AcDbSymbolTableRecord
100
AcDbBlockTableRecord
  2
*Paper_Space
340
0
  0
ENDTAB
  0
ENDSEC
  0
SECTION
  2
BLOCKS
  0
BLOCK
  5
1F
100
AcDbEntity
  8
0
390
0
100
AcDbBlockBegin
  2
*Model_Space
 70
     0
 10
0.0
 20
0.0
 30
0.0
  3
*Model_Space
  1

  0
ENDBLK
  5
20
100
AcDbEntity
  8
0
390
0
100
AcDbBlockEnd
  0
BLOCK
  5
21
100
AcDbEntity
 67
     1
  8
0
390
0
100
AcDbBlockBegin
  2
*Paper_Space
 70
     0
 10
0.0
 20
0.0
 30
0.0
  3
*Paper_Space
  1

  0
ENDBLK
  5
22
100
AcDbEntity
 67
     1
  8
0
390
0
100
AcDbBlockEnd
  0
ENDSEC
  0
SECTION
  2
ENTITIES
  0
LINE
  5
24
100
AcDbEntity
  8
1
370
   100
100
AcDbLine
 10
-194.312997
 20
148.836071
 30
0.0
 11
189.68898
 21
148.836071
 31
0.0
  0
LINE
  5
25
100
AcDbEntity
  8
1
370
   100
100
AcDbLine
 10
-194.312997
 20
148.836071
 30
0.0
 11
-194.312997
 21
-127.664253
 31
0.0
  0
LINE
  5
26
100
AcDbEntity
  8
1
370
   100
100
AcDbLine
 10
-194.312997
 20
-127.664253
 30
0.0
 11
189.68898
 21
-127.664253
 31
0.0
  0
LINE
  5
27
100
AcDbEntity
  8
1
370
   100
100
AcDbLine
 10
189.68898
 20
-127.664253
 30
0.0
 11
189.68898
 21
148.836071
 31
0.0
  0
TEXT
  5
28
100
AcDbEntity
  8
1
370
    50
100
AcDbText
 10
172.012009
 20
-101.804741
 30
0.0
 40
3.0
  1
設計
 72
     5
 11
177.412009
 21
-101.804741
 31
0.0
100
AcDbText
  0
TEXT
  5
29
100
AcDbEntity
  8
1
370
    50
100
AcDbText
 10
181.761526
 20
-101.728142
 30
0.0
 40
3.0
  1
製図
 72
     5
 11
187.161526
 21
-101.728142
 31
0.0
100
AcDbText
  0
TEXT
  5
2A
100
AcDbEntity
  8
1
370
    50
100
AcDbText
 10
151.70066
 20
-101.804741
 30
0.0
 40
3.0
  1
承認
 72
     5
 11
157.10066
 21
-101.804741
 31
0.0
100
AcDbText
  0
TEXT
  5
2B
100
AcDbEntity
  8
1
370
    50
100
AcDbText
 10
161.692627
 20
-101.777322
 30
0.0
 40
3.0
  1
検図
 72
     5
 11
167.092627
 21
-101.777322
 31
0.0
100
AcDbText
  0
LINE
  5
2C
100
AcDbEntity
  8
1
370
    25
100
AcDbLine
 10
134.68898
 20
-102.664253
 30
0.0
 11
189.68898
 21
-102.664253
 31
0.0
  0
LINE
  5
2D
100
AcDbEntity
  8
1
370
    25
100
AcDbLine
 10
163.43898
 20
-111.664253
 30
0.0
 11
163.43898
 21
-118.664253
 31
0.0
  0
TEXT
  5
2E
100
AcDbEntity
  8
1
370
    50
100
AcDbText
 10
151.973582
 20
-116.684576
 30
0.0
 40
3.0
  1
日　付
 72
     5
 11
160.373582
 21
-116.684576
 31
0.0
100
AcDbText
  0
LINE
  5
2F
100
AcDbEntity
  8
1
370
    50
100
AcDbLine
 10
12.68898
 20
-118.664253
 30
0.0
 11
189.68898
 21
-118.664253
 31
0.0
  0
TEXT
  5
30
100
AcDbEntity
  8
1
370
    50
100
AcDbText
 10
136.085293
 20
-116.839516
 30
0.0
 40
3.0
  1
第三角法
 72
     5
 11
147.485293
 21
-116.839516
 31
0.0
100
AcDbText
  0
TEXT
  5
31
100
AcDbEntity
  8
1
370
    50
100
AcDbText
 10
137.741497
 20
-101.677322
 30
0.0
 40
3.0
  1
尺　度
 72
     5
 11
146.141497
 21
-101.677322
 31
0.0
100
AcDbText
  0
LINE
  5
32
100
AcDbEntity
  8
1
370
   100
100
AcDbLine
 10
12.68898
 20
-97.664253
 30
0.0
 11
189.68898
 21
-97.664253
 31
0.0
  0
LINE
  5
33
100
AcDbEntity
  8
1
370
    50
100
AcDbLine
 10
98.18898
 20
-97.664253
 30
0.0
 11
98.18898
 21
-127.664253
 31
0.0
  0
LINE
  5
34
100
AcDbEntity
  8
1
370
    25
100
AcDbLine
 10
179.68898
 20
-111.664253
 30
0.0
 11
179.68898
 21
-97.664253
 31
0.0
  0
LINE
  5
35
100
AcDbEntity
  8
1
370
    25
100
AcDbLine
 10
169.68898
 20
-111.664253
 30
0.0
 11
169.68898
 21
-97.664253
 31
0.0
  0
LINE
  5
36
100
AcDbEntity
  8
1
370
    25
100
AcDbLine
 10
159.68898
 20
-111.664253
 30
0.0
 11
159.68898
 21
-97.664253
 31
0.0
  0
LINE
  5
37
100
AcDbEntity
  8
1
370
    50
100
AcDbLine
 10
134.68898
 20
-127.664253
 30
0.0
 11
134.68898
 21
-97.664253
 31
0.0
  0
LINE
  5
38
100
AcDbEntity
  8
1
370
    50
100
AcDbLine
 10
87.18898
 20
-97.664253
 30
0.0
 11
87.18898
 21
-127.664253
 31
0.0
  0
LINE
  5
39
100
AcDbEntity
  8
1
370
    50
100
AcDbLine
 10
23.68898
 20
-97.664253
 30
0.0
 11
23.68898
 21
-118.664253
 31
0.0
  0
LINE
  5
3A
100
AcDbEntity
  8
1
370
    50
100
AcDbLine
 10
134.68898
 20
-111.664253
 30
0.0
 11
189.68898
 21
-111.664253
 31
0.0
  0
TEXT
  5
3B
100
AcDbEntity
  8
1
370
    50
100
AcDbText
 10
135.748352
 20
-124.618782
 30
0.0
 40
3.0
  1
コードＮｏ
 41
0.9
 72
     5
 11
148.708352
 21
-124.618782
 31
0.0
100
AcDbText
  0
TEXT
  5
3C
100
AcDbEntity
  8
1
370
   100
100
AcDbText
 10
18.641174
 20
-125.116142
 30
0.0
 40
4.0
  1
ミズタニバルブ工業株式会社
 41
1.2
 72
     5
 11
80.081174
 21
-125.116142
 31
0.0
100
AcDbText
  0
LINE
  5
3D
100
AcDbEntity
  8
1
370
    50
100
AcDbLine
 10
12.68898
 20
-108.164253
 30
0.0
 11
134.68898
 21
-108.164253
 31
0.0
  0
LINE
  5
3E
100
AcDbEntity
  8
1
370
    50
100
AcDbLine
 10
49.93898
 20
-108.164253
 30
0.0
 11
49.93898
 21
-118.664253
 31
0.0
  0
LINE
  5
3F
100
AcDbEntity
  8
1
370
    50
100
AcDbLine
 10
60.93898
 20
-108.164253
 30
0.0
 11
60.93898
 21
-118.664253
 31
0.0
  0
LINE
  5
40
100
AcDbEntity
  8
1
370
    50
100
AcDbLine
 10
149.68898
 20
-127.664253
 30
0.0
 11
149.68898
 21
-97.664253
 31
0.0
  0
TEXT
  5
41
100
AcDbEntity
  8
1
370
    50
100
AcDbText
 10
164.746853
 20
-116.728459
 30
0.0
 40
3.0
  1
　　・　　・
 72
     5
 11
182.146853
 21
-116.728459
 31
0.0
100
AcDbText
  0
LINE
  5
42
100
AcDbEntity
  8
1
370
   100
100
AcDbLine
 10
12.68898
 20
-97.664253
 30
0.0
 11
12.68898
 21
-127.664253
 31
0.0
  0
TEXT
  5
43
100
AcDbEntity
  8
1
370
    50
100
AcDbText
 10
137.614079
 20
-108.685059
 30
0.0
 40
3.0
  1
　／ 
 72
     5
 11
143.014079
 21
-108.685059
 31
0.0
100
AcDbText
  0
TEXT
  5
44
100
AcDbEntity
  8
1
370
    50
100
AcDbText
 10
89.149849
 20
-124.690767
 30
0.0
 40
3.0
  1
備 考 
 72
     5
 11
96.049849
 21
-124.690767
 31
0.0
100
AcDbText
  0
TEXT
  5
45
100
AcDbEntity
  8
1
370
    50
100
AcDbText
 10
88.954054
 20
-104.124232
 30
0.0
 40
3.0
  1
仕 上
 72
     5
 11
95.854054
 21
-104.124232
 31
0.0
100
AcDbText
  0
TEXT
  5
46
100
AcDbEntity
  8
1
370
    50
100
AcDbText
 10
88.921375
 20
-113.124146
 30
0.0
 40
3.0
  1
表 面
 72
     5
 11
95.821375
 21
-113.124146
 31
0.0
100
AcDbText
  0
TEXT
  5
47
100
AcDbEntity
  8
1
370
    50
100
AcDbText
 10
88.921375
 20
-116.624146
 30
0.0
 40
3.0
  1
処 理
 72
     5
 11
95.821375
 21
-116.624146
 31
0.0
100
AcDbText
  0
TEXT
  5
48
100
AcDbEntity
  8
1
370
    50
100
AcDbText
 10
14.594463
 20
-104.525012
 30
0.0
 40
3.0
  1
品 名
 72
     5
 11
21.494463
 21
-104.525012
 31
0.0
100
AcDbText
  0
TEXT
  5
49
100
AcDbEntity
  8
1
370
    50
100
AcDbText
 10
14.396671
 20
-114.909579
 30
0.0
 40
3.0
  1
材 質
 72
     5
 11
21.296671
 21
-114.909579
 31
0.0
100
AcDbText
  0
TEXT
  5
4A
100
AcDbEntity
  8
1
370
    50
100
AcDbText
 10
51.646671
 20
-114.909579
 30
0.0
 40
3.0
  1
規 格
 72
     5
 11
58.546671
 21
-114.909579
 31
0.0
100
AcDbText
  0
TEXT
  5
4B
100
AcDbEntity
  8
2
370
    50
100
AcDbText
 10
164.746853
 20
-116.728459
 30
0.0
 40
3.0
  1
００　００　００
 72
     5
 11
188.146853
 21
-116.728459
 31
0.0
100
AcDbText
  0
TEXT
  5
4C
100
AcDbEntity
  8
2
370
    50
100
AcDbText
 10
137.614079
 20
-108.685059
 30
0.0
 40
3.0
  1
１　１
 72
     5
 11
146.014079
 21
-108.685059
 31
0.0
100
AcDbText
  0
TEXT
  5
4D
100
AcDbEntity
  8
2
370
    50
100
AcDbText
 10
155.32085
 20
-126.011517
 30
0.0
 40
3.0
  1
３０１２５０
 72
     5
 11
172.72085
 21
-126.011517
 31
0.0
100
AcDbText
  0
TEXT
  5
4E
100
AcDbEntity
  8
2
370
    50
100
AcDbText
 10
26.232464
 20
-101.705046
 30
0.0
 40
3.0
  1
壁付２ハンドル湯水混合水栓
 72
     5
 11
64.632464
 21
-101.705046
 31
0.0
100
AcDbText
  0
TEXT
  5
4F
100
AcDbEntity
  8
2
370
    50
100
AcDbText
 10
26.545307
 20
-106.655411
 30
0.0
 40
3.5
  1
Ｋ１３－４３６Ｃ
 72
     5
 11
53.845307
 21
-106.655411
 31
0.0
100
AcDbText
  0
LINE
  5
50
100
AcDbEntity
  8
2
370
    50
100
AcDbLine
 10
-80.950958
 20
12.29487
 30
0.0
 11
-80.950958
 21
23.79487
 31
0.0
  0
LINE
  5
51
100
AcDbEntity
  8
2
370
    50
100
AcDbLine
 10
-160.950958
 20
12.29487
 30
0.0
 11
-160.950958
 21
23.79487
 31
0.0
  0
LINE
  5
52
100
AcDbEntity
  8
2
370
    50
100
AcDbLine
 10
-93.450958
 20
23.16987
 30
0.0
 11
-93.450958
 21
23.79487
 31
0.0
  0
LINE
  5
53
100
AcDbEntity
  8
2
370
    50
100
AcDbLine
 10
-148.450958
 20
23.16987
 30
0.0
 11
-148.450958
 21
23.79487
 31
0.0
  0
ARC
  5
54
100
AcDbEntity
  8
2
370
    50
100
AcDbCircle
 10
-87.200958
 20
12.29487
 30
0.0
 40
6.25
100
AcDbArc
 50
270.0
 51
360.0
  0
ARC
  5
55
100
AcDbEntity
  8
2
370
    50
100
AcDbCircle
 10
-154.700958
 20
12.29487
 30
0.0
 40
6.25
100
AcDbArc
 50
180.0
 51
270.0
  0
LINE
  5
56
100
AcDbEntity
  8
2
370
    50
100
AcDbLine
 10
-108.450958
 20
7.41987
 30
0.0
 11
-96.179231
 21
7.41987
 31
0.0
  0
ARC
  5
57
100
AcDbEntity
  8
2
370
    50
100
AcDbCircle
 10
-87.200958
 20
21.04487
 30
0.0
 40
15.0
100
AcDbArc
 50
252.585892
 51
270.0
  0
ARC
  5
58
100
AcDbEntity
  8
2
370
    50
100
AcDbCircle
 10
-96.179231
 20
-7.58013
 30
0.0
 40
15.0
100
AcDbArc
 50
72.585892
 51
90.0
  0
ARC
  5
59
100
AcDbEntity
  8
2
370
    50
100
AcDbCircle
 10
-108.450958
 20
1.41987
 30
0.0
 40
6.0
100
AcDbArc
 50
90.0
 51
161.032653
  0
ARC
  5
5A
100
AcDbEntity
  8
2
370
    50
100
AcDbCircle
 10
-133.450958
 20
1.41987
 30
0.0
 40
6.0
100
AcDbArc
 50
18.967347
 51
90.0
  0
LINE
  5
5B
100
AcDbEntity
  8
2
370
    50
100
AcDbLine
 10
-133.450958
 20
7.41987
 30
0.0
 11
-145.722686
 21
7.41987
 31
0.0
  0
ARC
  5
5C
100
AcDbEntity
  8
2
370
    50
100
AcDbCircle
 10
-145.722686
 20
-7.58013
 30
0.0
 40
15.0
100
AcDbArc
 50
90.0
 51
107.414108
  0
ARC
  5
5D
100
AcDbEntity
  8
2
370
    50
100
AcDbCircle
 10
-154.700958
 20
21.04487
 30
0.0
 40
15.0
100
AcDbArc
 50
270.0
 51
287.414108
  0
POINT
  5
5E
100
AcDbEntity
  8
2
370
    50
100
AcDbPoint
 10
-142.450958
 20
17.16987
 30
0.0
  0
POINT
  5
5F
100
AcDbEntity
  8
2
370
    50
100
AcDbPoint
 10
-99.450958
 20
17.16987
 30
0.0
  0
ARC
  5
60
100
AcDbEntity
  8
2
370
    50
100
AcDbCircle
 10
-142.450958
 20
23.16987
 30
0.0
 40
6.0
100
AcDbArc
 50
180.0
 51
270.0
  0
ARC
  5
61
100
AcDbEntity
  8
2
370
    50
100
AcDbCircle
 10
-99.450958
 20
23.16987
 30
0.0
 40
6.0
100
AcDbArc
 50
270.0
 51
360.0
  0
ARC
  5
62
100
AcDbEntity
  8
2
370
    50
100
AcDbCircle
 10
-120.950958
 20
-231.903914
 30
0.0
 40
250.0
100
AcDbArc
 50
85.066469
 51
94.933531
  0
ARC
  5
63
100
AcDbEntity
  8
2
370
    50
100
AcDbCircle
 10
-154.700978
 20
9.29487
 30
0.0
 40
40.0
100
AcDbArc
 50
84.370157
 51
95.629843
  0
LINE
  5
64
100
AcDbEntity
  8
2
370
    50
100
AcDbLine
 10
-154.700958
 20
48.29487
 30
0.0
 11
-150.075978
 21
48.29487
 31
0.0
  0
ARC
  5
65
100
AcDbEntity
  8
2
370
    50
100
AcDbCircle
 10
-150.825978
 20
48.60434
 30
0.0
 40
0.5
100
AcDbArc
 50
0.0
 51
84.370157
  0
ARC
  5
66
100
AcDbEntity
  8
2
370
    50
100
AcDbCircle
 10
-117.341578
 20
34.505289
 30
0.0
 40
50.0
100
AcDbArc
 50
168.537652
 51
188.388164
  0
ARC
  5
67
100
AcDbEntity
  8
2
370
    50
100
AcDbCircle
 10
-192.060377
 20
34.505289
 30
0.0
 40
50.0
100
AcDbArc
 50
351.611836
 51
11.462348
  0
ARC
  5
68
100
AcDbEntity
  8
2
370
    50
100
AcDbCircle
 10
-154.700978
 20
-21.552172
 30
0.0
 40
70.0
100
AcDbArc
 50
93.788374
 51
96.34007
  0
ARC
  5
69
100
AcDbEntity
  8
2
370
    50
100
AcDbCircle
 10
-154.700978
 20
-21.552172
 30
0.0
 40
70.0
100
AcDbArc
 50
83.65993
 51
86.211626
  0
ARC
  5
6A
100
AcDbEntity
  8
2
370
    50
100
AcDbCircle
 10
-161.934104
 20
43.547228
 30
0.0
 40
4.5
100
AcDbArc
 50
96.34007
 51
168.537652
  0
ARC
  5
6B
100
AcDbEntity
  8
2
370
    50
100
AcDbCircle
 10
-147.467851
 20
43.547228
 30
0.0
 40
4.5
100
AcDbArc
 50
11.462348
 51
83.65993
  0
ARC
  5
6C
100
AcDbEntity
  8
2
370
    50
100
AcDbCircle
 10
-162.849493
 20
27.79487
 30
0.0
 40
4.0
100
AcDbArc
 50
188.388164
 51
270.0
  0
ARC
  5
6D
100
AcDbEntity
  8
2
370
    50
100
AcDbCircle
 10
-146.552463
 20
27.79487
 30
0.0
 40
4.0
100
AcDbArc
 50
270.0
 51
351.611836
  0
LINE
  5
6E
100
AcDbEntity
  8
2
370
    50
100
AcDbLine
 10
-162.849493
 20
23.79487
 30
0.0
 11
-146.552463
 21
23.79487
 31
0.0
  0
LINE
  5
6F
100
AcDbEntity
  8
2
370
    50
100
AcDbLine
 10
-159.075978
 20
48.60434
 30
0.0
 11
-159.075978
 21
48.29487
 31
0.0
  0
LINE
  5
70
100
AcDbEntity
  8
2
370
    50
100
AcDbLine
 10
-150.325978
 20
48.60434
 30
0.0
 11
-150.325978
 21
48.29487
 31
0.0
  0
ARC
  5
71
100
AcDbEntity
  8
2
370
    50
100
AcDbCircle
 10
-158.575978
 20
48.60434
 30
0.0
 40
0.5
100
AcDbArc
 50
95.629843
 51
180.0
  0
ARC
  5
72
100
AcDbEntity
  8
2
370
    50
100
AcDbCircle
 10
-150.825978
 20
48.60434
 30
0.0
 40
0.5
100
AcDbArc
 50
0.0
 51
84.370157
  0
ARC
  5
73
100
AcDbEntity
  8
2
370
    50
100
AcDbCircle
 10
-154.700978
 20
9.29487
 30
0.0
 40
40.0
100
AcDbArc
 50
84.370157
 51
95.629843
  0
LINE
  5
74
100
AcDbEntity
  8
2
370
    50
100
AcDbLine
 10
-159.325978
 20
48.29487
 30
0.0
 11
-154.700958
 21
48.29487
 31
0.0
  0
LINE
  5
75
100
AcDbEntity
  8
2
370
    50
100
AcDbLine
 10
-154.700958
 20
48.29487
 30
0.0
 11
-150.075978
 21
48.29487
 31
0.0
  0
ARC
  5
76
100
AcDbEntity
  8
2
370
    50
100
AcDbCircle
 10
-209.533429
 20
34.247703
 30
0.0
 40
60.0
100
AcDbArc
 50
355.059572
 51
9.155483
  0
ARC
  5
77
100
AcDbEntity
  8
2
370
    50
100
AcDbCircle
 10
-99.868488
 20
34.247703
 30
0.0
 40
60.0
100
AcDbArc
 50
170.844517
 51
184.940428
  0
ARC
  5
78
100
AcDbEntity
  8
2
370
    50
100
AcDbCircle
 10
-154.700958
 20
43.08491
 30
0.0
 40
4.45996
100
AcDbArc
 50
9.155483
 51
170.844517
  0
ARC
  5
79
100
AcDbEntity
  8
2
370
    50
100
AcDbCircle
 10
-154.700958
 20
29.507926
 30
0.0
 40
4.963055
100
AcDbArc
 50
184.940428
 51
355.059572
  0
LINE
  5
7A
100
AcDbEntity
  8
2
370
    50
100
AcDbLine
 10
-147.450958
 20
46.54487
 30
0.0
 11
-147.450958
 21
26.04487
 31
0.0
  0
LINE
  5
7B
100
AcDbEntity
  8
2
370
    50
100
AcDbLine
 10
-161.950958
 20
46.54487
 30
0.0
 11
-161.950958
 21
26.04487
 31
0.0
  0
ARC
  5
7C
100
AcDbEntity
  8
2
370
    50
100
AcDbCircle
 10
-192.060358
 20
34.505289
 30
0.0
 40
49.75
100
AcDbArc
 50
352.362481
 51
11.528523
  0
ARC
  5
7D
100
AcDbEntity
  8
2
370
    50
100
AcDbCircle
 10
-117.341559
 20
34.505289
 30
0.0
 40
49.75
100
AcDbArc
 50
168.471477
 51
187.637519
  0
ARC
  5
7E
100
AcDbEntity
  8
2
370
    50
100
AcDbCircle
 10
-162.168568
 20
43.648689
 30
0.0
 40
4.0
100
AcDbArc
 50
105.117347
 51
168.471477
  0
ARC
  5
7F
100
AcDbEntity
  8
2
370
    50
100
AcDbCircle
 10
-162.950958
 20
46.54487
 30
0.0
 40
1.0
100
AcDbArc
 50
0.0
 51
105.117347
  0
ARC
  5
80
100
AcDbEntity
  8
2
370
    50
100
AcDbCircle
 10
-147.233349
 20
43.648689
 30
0.0
 40
4.0
100
AcDbArc
 50
11.528523
 51
74.882653
  0
ARC
  5
81
100
AcDbEntity
  8
2
370
    50
100
AcDbCircle
 10
-146.450958
 20
46.54487
 30
0.0
 40
1.0
100
AcDbArc
 50
74.882653
 51
180.0
  0
ARC
  5
82
100
AcDbEntity
  8
2
370
    50
100
AcDbCircle
 10
-162.685698
 20
28.424865
 30
0.0
 40
4.0
100
AcDbArc
 50
187.637519
 51
252.175397
  0
ARC
  5
83
100
AcDbEntity
  8
2
370
    50
100
AcDbCircle
 10
-163.450958
 20
26.04487
 30
0.0
 40
1.5
100
AcDbArc
 50
252.175397
 51
360.0
  0
ARC
  5
84
100
AcDbEntity
  8
2
370
    50
100
AcDbCircle
 10
-145.950958
 20
26.04487
 30
0.0
 40
1.5
100
AcDbArc
 50
180.0
 51
287.824603
  0
ARC
  5
85
100
AcDbEntity
  8
2
370
    50
100
AcDbCircle
 10
-146.716219
 20
28.424865
 30
0.0
 40
4.0
100
AcDbArc
 50
287.824603
 51
352.362481
  0
POINT
  5
86
100
AcDbEntity
  8
2
370
    50
100
AcDbPoint
 10
-154.700958
 20
49.29487
 30
0.0
  0
LINE
  5
87
100
AcDbEntity
  8
2
370
    50
100
AcDbLine
 10
-93.200958
 20
23.79487
 30
0.0
 11
-81.200958
 21
23.79487
 31
0.0
  0
ARC
  5
88
100
AcDbEntity
  8
2
370
    50
100
AcDbCircle
 10
-49.841539
 20
34.505289
 30
0.0
 40
50.0
100
AcDbArc
 50
168.537652
 51
188.388164
  0
ARC
  5
89
100
AcDbEntity
  8
2
370
    50
100
AcDbCircle
 10
-49.841559
 20
34.505289
 30
0.0
 40
49.75
100
AcDbArc
 50
168.471477
 51
187.637519
  0
ARC
  5
8A
100
AcDbEntity
  8
2
370
    50
100
AcDbCircle
 10
-94.434065
 20
43.547228
 30
0.0
 40
4.5
100
AcDbArc
 50
96.34007
 51
168.537652
  0
ARC
  5
8B
100
AcDbEntity
  8
2
370
    50
100
AcDbCircle
 10
-94.668568
 20
43.648689
 30
0.0
 40
4.0
100
AcDbArc
 50
105.117347
 51
168.471477
  0
ARC
  5
8C
100
AcDbEntity
  8
2
370
    50
100
AcDbCircle
 10
-95.450958
 20
46.54487
 30
0.0
 40
1.0
100
AcDbArc
 50
0.0
 51
105.117347
  0
LINE
  5
8D
100
AcDbEntity
  8
2
370
    50
100
AcDbLine
 10
-94.450958
 20
46.54487
 30
0.0
 11
-94.450958
 21
26.04487
 31
0.0
  0
ARC
  5
8E
100
AcDbEntity
  8
2
370
    50
100
AcDbCircle
 10
-95.950958
 20
26.04487
 30
0.0
 40
1.5
100
AcDbArc
 50
252.175397
 51
360.0
  0
ARC
  5
8F
100
AcDbEntity
  8
2
370
    50
100
AcDbCircle
 10
-95.950958
 20
26.04487
 30
0.0
 40
1.5
100
AcDbArc
 50
252.175397
 51
360.0
  0
ARC
  5
90
100
AcDbEntity
  8
2
370
    50
100
AcDbCircle
 10
-95.185698
 20
28.424865
 30
0.0
 40
4.0
100
AcDbArc
 50
187.637519
 51
252.175397
  0
ARC
  5
91
100
AcDbEntity
  8
2
370
    50
100
AcDbCircle
 10
-95.349454
 20
27.79487
 30
0.0
 40
4.0
100
AcDbArc
 50
188.388164
 51
270.0
  0
LINE
  5
92
100
AcDbEntity
  8
2
370
    50
100
AcDbLine
 10
-79.052424
 20
23.79487
 30
0.0
 11
-95.349454
 21
23.79487
 31
0.0
  0
ARC
  5
93
100
AcDbEntity
  8
2
370
    50
100
AcDbCircle
 10
-79.052424
 20
27.79487
 30
0.0
 40
4.0
100
AcDbArc
 50
270.0
 51
351.611836
  0
ARC
  5
94
100
AcDbEntity
  8
2
370
    50
100
AcDbCircle
 10
-124.560338
 20
34.505289
 30
0.0
 40
50.0
100
AcDbArc
 50
351.611836
 51
11.462348
  0
ARC
  5
95
100
AcDbEntity
  8
2
370
    50
100
AcDbCircle
 10
-79.967813
 20
43.547228
 30
0.0
 40
4.5
100
AcDbArc
 50
11.462348
 51
83.65993
  0
ARC
  5
96
100
AcDbEntity
  8
2
370
    50
100
AcDbCircle
 10
-79.967813
 20
43.547228
 30
0.0
 40
4.5
100
AcDbArc
 50
11.462348
 51
83.65993
  0
ARC
  5
97
100
AcDbEntity
  8
2
370
    50
100
AcDbCircle
 10
-87.200939
 20
-21.552172
 30
0.0
 40
70.0
100
AcDbArc
 50
83.65993
 51
86.211626
  0
LINE
  5
98
100
AcDbEntity
  8
2
370
    50
100
AcDbLine
 10
-82.575939
 20
48.29487
 30
0.0
 11
-87.200958
 21
48.29487
 31
0.0
  0
LINE
  5
99
100
AcDbEntity
  8
2
370
    50
100
AcDbLine
 10
-87.200958
 20
48.29487
 30
0.0
 11
-91.825939
 21
48.29487
 31
0.0
  0
ARC
  5
9A
100
AcDbEntity
  8
2
370
    50
100
AcDbCircle
 10
-87.200939
 20
-21.552172
 30
0.0
 40
70.0
100
AcDbArc
 50
93.788374
 51
96.34007
  0
ARC
  5
9B
100
AcDbEntity
  8
2
370
    50
100
AcDbCircle
 10
-87.200939
 20
-21.552172
 30
0.0
 40
70.0
100
AcDbArc
 50
93.788374
 51
96.34007
  0
ARC
  5
9C
100
AcDbEntity
  8
2
370
    50
100
AcDbCircle
 10
-87.200939
 20
9.29487
 30
0.0
 40
40.0
100
AcDbArc
 50
84.370157
 51
95.629843
  0
ARC
  5
9D
100
AcDbEntity
  8
2
370
    50
100
AcDbCircle
 10
-91.075939
 20
48.60434
 30
0.0
 40
0.5
100
AcDbArc
 50
95.629843
 51
180.0
  0
ARC
  5
9E
100
AcDbEntity
  8
2
370
    50
100
AcDbCircle
 10
-83.325939
 20
48.60434
 30
0.0
 40
0.5
100
AcDbArc
 50
0.0
 51
84.370157
  0
ARC
  5
9F
100
AcDbEntity
  8
2
370
    50
100
AcDbCircle
 10
-87.200958
 20
43.08491
 30
0.0
 40
4.45996
100
AcDbArc
 50
9.155483
 51
170.844517
  0
ARC
  5
A0
100
AcDbEntity
  8
2
370
    50
100
AcDbCircle
 10
-32.368488
 20
34.247703
 30
0.0
 40
60.0
100
AcDbArc
 50
170.844517
 51
184.940428
  0
ARC
  5
A1
100
AcDbEntity
  8
2
370
    50
100
AcDbCircle
 10
-142.033429
 20
34.247703
 30
0.0
 40
60.0
100
AcDbArc
 50
355.059572
 51
9.155483
  0
ARC
  5
A2
100
AcDbEntity
  8
2
370
    50
100
AcDbCircle
 10
-87.200958
 20
29.507926
 30
0.0
 40
4.963055
100
AcDbArc
 50
184.940428
 51
355.059572
  0
LINE
  5
A3
100
AcDbEntity
  8
2
370
    50
100
AcDbLine
 10
-79.950958
 20
46.54487
 30
0.0
 11
-79.950958
 21
26.04487
 31
0.0
  0
ARC
  5
A4
100
AcDbEntity
  8
2
370
    50
100
AcDbCircle
 10
-78.950958
 20
46.54487
 30
0.0
 40
1.0
100
AcDbArc
 50
74.882653
 51
180.0
  0
ARC
  5
A5
100
AcDbEntity
  8
2
370
    50
100
AcDbCircle
 10
-79.733349
 20
43.648689
 30
0.0
 40
4.0
100
AcDbArc
 50
11.528523
 51
74.882653
  0
ARC
  5
A6
100
AcDbEntity
  8
2
370
    50
100
AcDbCircle
 10
-124.560358
 20
34.505289
 30
0.0
 40
49.75
100
AcDbArc
 50
352.362481
 51
11.528523
  0
ARC
  5
A7
100
AcDbEntity
  8
2
370
    50
100
AcDbCircle
 10
-79.216219
 20
28.424865
 30
0.0
 40
4.0
100
AcDbArc
 50
287.824603
 51
352.362481
  0
ARC
  5
A8
100
AcDbEntity
  8
2
370
    50
100
AcDbCircle
 10
-79.216219
 20
28.424865
 30
0.0
 40
4.0
100
AcDbArc
 50
287.824603
 51
352.362481
  0
ARC
  5
A9
100
AcDbEntity
  8
2
370
    50
100
AcDbCircle
 10
-78.450958
 20
26.04487
 30
0.0
 40
1.5
100
AcDbArc
 50
180.0
 51
287.824603
  0
LINE
  5
AA
100
AcDbEntity
  8
2
370
    50
100
AcDbLine
 10
-87.200958
 20
48.29487
 30
0.0
 11
-91.825939
 21
48.29487
 31
0.0
  0
LINE
  5
AB
100
AcDbEntity
  8
2
370
    50
100
AcDbLine
 10
-82.825939
 20
48.60434
 30
0.0
 11
-82.825939
 21
48.29487
 31
0.0
  0
ARC
  5
AC
100
AcDbEntity
  8
2
370
    50
100
AcDbCircle
 10
-87.200939
 20
-21.552172
 30
0.0
 40
70.0
100
AcDbArc
 50
83.65993
 51
86.211626
  0
ARC
  5
AD
100
AcDbEntity
  8
2
370
    50
100
AcDbCircle
 10
-91.075939
 20
48.60434
 30
0.0
 40
0.5
100
AcDbArc
 50
95.629843
 51
180.0
  0
ARC
  5
AE
100
AcDbEntity
  8
2
370
    50
100
AcDbCircle
 10
-91.075939
 20
48.60434
 30
0.0
 40
0.5
100
AcDbArc
 50
95.629843
 51
180.0
  0
LINE
  5
AF
100
AcDbEntity
  8
2
370
    50
100
AcDbLine
 10
-91.575939
 20
48.60434
 30
0.0
 11
-91.575939
 21
48.29487
 31
0.0
  0
POINT
  5
B0
100
AcDbEntity
  8
2
370
    50
100
AcDbPoint
 10
-87.200958
 20
49.29487
 30
0.0
  0
LINE
  5
B1
100
AcDbEntity
  8
2
370
    50
100
AcDbLine
 10
-80.950958
 20
14.530152
 30
0.0
 11
-68.816318
 21
2.395511
 31
0.0
  0
LINE
  5
B2
100
AcDbEntity
  8
2
370
    50
100
AcDbLine
 10
-89.635051
 20
6.243681
 30
0.0
 11
-77.301599
 21
-6.08977
 31
0.0
  0
ARC
  5
B3
100
AcDbEntity
  8
2
370
    50
100
AcDbCircle
 10
-73.058958
 20
-1.84713
 30
0.0
 40
13.5
100
AcDbArc
 50
161.3878
 51
108.6122
  0
POINT
  5
B4
100
AcDbEntity
  8
2
370
    50
100
AcDbPoint
 10
-87.200958
 20
12.29487
 30
0.0
  0
LINE
  5
B5
100
AcDbEntity
  8
2
370
    50
100
AcDbLine
 10
-160.950958
 20
14.530152
 30
0.0
 11
-173.085599
 21
2.395511
 31
0.0
  0
LINE
  5
B6
100
AcDbEntity
  8
2
370
    50
100
AcDbLine
 10
-152.266866
 20
6.243681
 30
0.0
 11
-164.600318
 21
-6.08977
 31
0.0
  0
ARC
  5
B7
100
AcDbEntity
  8
2
370
    50
100
AcDbCircle
 10
-168.842958
 20
-1.84713
 30
0.0
 40
13.5
100
AcDbArc
 50
71.3878
 51
18.6122
  0
LINE
  5
B8
100
AcDbEntity
  8
2
370
    50
100
AcDbLine
 10
-160.700958
 20
23.79487
 30
0.0
 11
-160.700958
 21
11.04487
 31
0.0
  0
LINE
  5
B9
100
AcDbEntity
  8
2
370
    50
100
AcDbLine
 10
-127.835012
 20
3.370046
 30
0.0
 11
-122.499499
 21
3.370046
 31
0.0
  0
LINE
  5
BA
100
AcDbEntity
  8
2
370
    50
100
AcDbLine
 10
-119.40169
 20
3.370046
 30
0.0
 11
-114.066506
 21
3.370046
 31
0.0
  0
LINE
  5
BB
100
AcDbEntity
  8
2
370
    50
100
AcDbLine
 10
-122.499499
 20
3.370046
 30
0.0
 11
-119.40169
 21
3.370046
 31
0.0
  0
POINT
  5
BC
100
AcDbEntity
  8
2
370
    50
100
AcDbPoint
 10
-73.058958
 20
-1.84713
 30
0.0
  0
POINT
  5
BD
100
AcDbEntity
  8
2
370
    50
100
AcDbPoint
 10
-168.842958
 20
-1.84713
 30
0.0
  0
ARC
  5
BE
100
AcDbEntity
  8
2
370
    50
100
AcDbCircle
 10
-73.058958
 20
-1.84713
 30
0.0
 40
6.0
100
AcDbArc
 50
225.0
 51
45.0
  0
ARC
  5
BF
100
AcDbEntity
  8
2
370
    50
100
AcDbCircle
 10
-73.058958
 20
-1.84713
 30
0.0
 40
7.0
100
AcDbArc
 50
193.997281
 51
76.002719
  0
ARC
  5
C0
100
AcDbEntity
  8
2
370
    50
100
AcDbCircle
 10
-168.842958
 20
-1.84713
 30
0.0
 40
6.0
100
AcDbArc
 50
135.0
 51
315.0
  0
ARC
  5
C1
100
AcDbEntity
  8
2
370
    50
100
AcDbCircle
 10
-168.842958
 20
-1.84713
 30
0.0
 40
7.0
100
AcDbArc
 50
103.997281
 51
346.002719
  0
LINE
  5
C2
100
AcDbEntity
  8
2
370
    50
100
AcDbLine
 10
23.049042
 20
23.79487
 30
0.0
 11
35.049042
 21
23.79487
 31
0.0
  0
ARC
  5
C3
100
AcDbEntity
  8
2
370
    50
100
AcDbCircle
 10
66.408461
 20
34.505289
 30
0.0
 40
50.0
100
AcDbArc
 50
168.537652
 51
188.388164
  0
ARC
  5
C4
100
AcDbEntity
  8
2
370
    50
100
AcDbCircle
 10
66.408441
 20
34.505289
 30
0.0
 40
49.75
100
AcDbArc
 50
168.471477
 51
187.637519
  0
ARC
  5
C5
100
AcDbEntity
  8
2
370
    50
100
AcDbCircle
 10
21.815935
 20
43.547228
 30
0.0
 40
4.5
100
AcDbArc
 50
96.34007
 51
168.537652
  0
ARC
  5
C6
100
AcDbEntity
  8
2
370
    50
100
AcDbCircle
 10
21.581432
 20
43.648689
 30
0.0
 40
4.0
100
AcDbArc
 50
105.117347
 51
168.471477
  0
ARC
  5
C7
100
AcDbEntity
  8
2
370
    50
100
AcDbCircle
 10
20.799042
 20
46.54487
 30
0.0
 40
1.0
100
AcDbArc
 50
0.0
 51
105.117347
  0
LINE
  5
C8
100
AcDbEntity
  8
2
370
    50
100
AcDbLine
 10
21.799042
 20
46.54487
 30
0.0
 11
21.799042
 21
26.04487
 31
0.0
  0
ARC
  5
C9
100
AcDbEntity
  8
2
370
    50
100
AcDbCircle
 10
20.299042
 20
26.04487
 30
0.0
 40
1.5
100
AcDbArc
 50
252.175397
 51
360.0
  0
ARC
  5
CA
100
AcDbEntity
  8
2
370
    50
100
AcDbCircle
 10
20.299042
 20
26.04487
 30
0.0
 40
1.5
100
AcDbArc
 50
252.175397
 51
360.0
  0
ARC
  5
CB
100
AcDbEntity
  8
2
370
    50
100
AcDbCircle
 10
21.064302
 20
28.424865
 30
0.0
 40
4.0
100
AcDbArc
 50
187.637519
 51
252.175397
  0
ARC
  5
CC
100
AcDbEntity
  8
2
370
    50
100
AcDbCircle
 10
20.900546
 20
27.79487
 30
0.0
 40
4.0
100
AcDbArc
 50
188.388164
 51
270.0
  0
LINE
  5
CD
100
AcDbEntity
  8
2
370
    50
100
AcDbLine
 10
37.197576
 20
23.79487
 30
0.0
 11
20.900546
 21
23.79487
 31
0.0
  0
ARC
  5
CE
100
AcDbEntity
  8
2
370
    50
100
AcDbCircle
 10
37.197576
 20
27.79487
 30
0.0
 40
4.0
100
AcDbArc
 50
270.0
 51
351.611836
  0
ARC
  5
CF
100
AcDbEntity
  8
2
370
    50
100
AcDbCircle
 10
-8.310338
 20
34.505289
 30
0.0
 40
50.0
100
AcDbArc
 50
351.611836
 51
11.462348
  0
ARC
  5
D0
100
AcDbEntity
  8
2
370
    50
100
AcDbCircle
 10
36.282187
 20
43.547228
 30
0.0
 40
4.5
100
AcDbArc
 50
11.462348
 51
83.65993
  0
ARC
  5
D1
100
AcDbEntity
  8
2
370
    50
100
AcDbCircle
 10
36.282187
 20
43.547228
 30
0.0
 40
4.5
100
AcDbArc
 50
11.462348
 51
83.65993
  0
ARC
  5
D2
100
AcDbEntity
  8
2
370
    50
100
AcDbCircle
 10
29.049061
 20
-21.552172
 30
0.0
 40
70.0
100
AcDbArc
 50
83.65993
 51
86.211626
  0
LINE
  5
D3
100
AcDbEntity
  8
2
370
    50
100
AcDbLine
 10
33.674061
 20
48.29487
 30
0.0
 11
29.049042
 21
48.29487
 31
0.0
  0
LINE
  5
D4
100
AcDbEntity
  8
2
370
    50
100
AcDbLine
 10
29.049042
 20
48.29487
 30
0.0
 11
24.424061
 21
48.29487
 31
0.0
  0
ARC
  5
D5
100
AcDbEntity
  8
2
370
    50
100
AcDbCircle
 10
29.049061
 20
-21.552172
 30
0.0
 40
70.0
100
AcDbArc
 50
93.788374
 51
96.34007
  0
ARC
  5
D6
100
AcDbEntity
  8
2
370
    50
100
AcDbCircle
 10
29.049061
 20
-21.552172
 30
0.0
 40
70.0
100
AcDbArc
 50
93.788374
 51
96.34007
  0
ARC
  5
D7
100
AcDbEntity
  8
2
370
    50
100
AcDbCircle
 10
29.049061
 20
9.29487
 30
0.0
 40
40.0
100
AcDbArc
 50
84.370157
 51
95.629843
  0
ARC
  5
D8
100
AcDbEntity
  8
2
370
    50
100
AcDbCircle
 10
25.174061
 20
48.60434
 30
0.0
 40
0.5
100
AcDbArc
 50
95.629843
 51
180.0
  0
ARC
  5
D9
100
AcDbEntity
  8
2
370
    50
100
AcDbCircle
 10
32.924061
 20
48.60434
 30
0.0
 40
0.5
100
AcDbArc
 50
0.0
 51
84.370157
  0
ARC
  5
DA
100
AcDbEntity
  8
2
370
    50
100
AcDbCircle
 10
29.049042
 20
43.08491
 30
0.0
 40
4.45996
100
AcDbArc
 50
9.155483
 51
170.844517
  0
ARC
  5
DB
100
AcDbEntity
  8
2
370
    50
100
AcDbCircle
 10
83.881512
 20
34.247703
 30
0.0
 40
60.0
100
AcDbArc
 50
170.844517
 51
184.940428
  0
ARC
  5
DC
100
AcDbEntity
  8
2
370
    50
100
AcDbCircle
 10
-25.783429
 20
34.247703
 30
0.0
 40
60.0
100
AcDbArc
 50
355.059572
 51
9.155483
  0
ARC
  5
DD
100
AcDbEntity
  8
2
370
    50
100
AcDbCircle
 10
29.049042
 20
29.507926
 30
0.0
 40
4.963055
100
AcDbArc
 50
184.940428
 51
355.059572
  0
LINE
  5
DE
100
AcDbEntity
  8
2
370
    50
100
AcDbLine
 10
36.299042
 20
46.54487
 30
0.0
 11
36.299042
 21
26.04487
 31
0.0
  0
ARC
  5
DF
100
AcDbEntity
  8
2
370
    50
100
AcDbCircle
 10
37.299042
 20
46.54487
 30
0.0
 40
1.0
100
AcDbArc
 50
74.882653
 51
180.0
  0
ARC
  5
E0
100
AcDbEntity
  8
2
370
    50
100
AcDbCircle
 10
36.516651
 20
43.648689
 30
0.0
 40
4.0
100
AcDbArc
 50
11.528523
 51
74.882653
  0
ARC
  5
E1
100
AcDbEntity
  8
2
370
    50
100
AcDbCircle
 10
-8.310358
 20
34.505289
 30
0.0
 40
49.75
100
AcDbArc
 50
352.362481
 51
11.528523
  0
ARC
  5
E2
100
AcDbEntity
  8
2
370
    50
100
AcDbCircle
 10
37.033781
 20
28.424865
 30
0.0
 40
4.0
100
AcDbArc
 50
287.824603
 51
352.362481
  0
ARC
  5
E3
100
AcDbEntity
  8
2
370
    50
100
AcDbCircle
 10
37.033781
 20
28.424865
 30
0.0
 40
4.0
100
AcDbArc
 50
287.824603
 51
352.362481
  0
ARC
  5
E4
100
AcDbEntity
  8
2
370
    50
100
AcDbCircle
 10
37.799042
 20
26.04487
 30
0.0
 40
1.5
100
AcDbArc
 50
180.0
 51
287.824603
  0
LINE
  5
E5
100
AcDbEntity
  8
2
370
    50
100
AcDbLine
 10
29.049042
 20
48.29487
 30
0.0
 11
24.424061
 21
48.29487
 31
0.0
  0
LINE
  5
E6
100
AcDbEntity
  8
2
370
    50
100
AcDbLine
 10
33.424061
 20
48.60434
 30
0.0
 11
33.424061
 21
48.29487
 31
0.0
  0
ARC
  5
E7
100
AcDbEntity
  8
2
370
    50
100
AcDbCircle
 10
29.049061
 20
-21.552172
 30
0.0
 40
70.0
100
AcDbArc
 50
83.65993
 51
86.211626
  0
ARC
  5
E8
100
AcDbEntity
  8
2
370
    50
100
AcDbCircle
 10
25.174061
 20
48.60434
 30
0.0
 40
0.5
100
AcDbArc
 50
95.629843
 51
180.0
  0
ARC
  5
E9
100
AcDbEntity
  8
2
370
    50
100
AcDbCircle
 10
25.174061
 20
48.60434
 30
0.0
 40
0.5
100
AcDbArc
 50
95.629843
 51
180.0
  0
LINE
  5
EA
100
AcDbEntity
  8
2
370
    50
100
AcDbLine
 10
24.674061
 20
48.60434
 30
0.0
 11
24.674061
 21
48.29487
 31
0.0
  0
POINT
  5
EB
100
AcDbEntity
  8
2
370
    50
100
AcDbPoint
 10
29.049042
 20
49.29487
 30
0.0
  0
LINE
  5
EC
100
AcDbEntity
  8
2
370
    50
100
AcDbLine
 10
23.049042
 20
17.592275
 30
0.0
 11
23.049042
 21
23.79487
 31
0.0
  0
LINE
  5
ED
100
AcDbEntity
  8
2
370
    50
100
AcDbLine
 10
35.049042
 20
21.263497
 30
0.0
 11
35.049042
 21
23.79487
 31
0.0
  0
ARC
  5
EE
100
AcDbEntity
  8
2
370
    50
100
AcDbCircle
 10
29.049042
 20
12.29487
 30
0.0
 40
6.25
100
AcDbArc
 50
174.596099
 51
292.619865
  0
ARC
  5
EF
100
AcDbEntity
  8
2
370
    50
100
AcDbCircle
 10
-26.950958
 20
17.592275
 30
0.0
 40
50.0
100
AcDbArc
 50
354.596099
 51
360.0
  0
LINE
  5
F0
100
AcDbEntity
  8
2
370
    50
100
AcDbLine
 10
36.549042
 20
17.29487
 30
0.0
 11
38.799042
 21
17.29487
 31
0.0
  0
LINE
  5
F1
100
AcDbEntity
  8
2
370
    50
100
AcDbLine
 10
35.299042
 20
7.29487
 30
0.0
 11
38.799042
 21
7.29487
 31
0.0
  0
ARC
  5
F2
100
AcDbEntity
  8
2
370
    50
100
AcDbCircle
 10
41.049042
 20
21.263497
 30
0.0
 40
6.0
100
AcDbArc
 50
180.0
 51
221.409622
  0
ARC
  5
F3
100
AcDbEntity
  8
2
370
    50
100
AcDbCircle
 10
35.299042
 20
-2.70513
 30
0.0
 40
10.0
100
AcDbArc
 50
90.0
 51
112.619865
  0
LINE
  5
F4
100
AcDbEntity
  8
2
370
    50
100
AcDbLine
 10
38.799042
 20
5.031536
 30
0.0
 11
38.799042
 21
19.558205
 31
0.0
  0
LINE
  5
F5
100
AcDbEntity
  8
2
370
    50
100
AcDbLine
 10
45.299486
 20
19.42734
 30
0.0
 11
45.299486
 21
5.162401
 31
0.0
  0
ARC
  5
F6
100
AcDbEntity
  8
2
370
    50
100
AcDbCircle
 10
41.924486
 20
13.294691
 30
0.0
 40
7.0
100
AcDbArc
 50
61.174551
 51
116.518838
  0
LINE
  5
F7
100
AcDbEntity
  8
2
370
    50
100
AcDbLine
 10
61.549042
 20
4.242699
 30
0.0
 11
61.549042
 21
-8.097192
 31
0.0
  0
LINE
  5
F8
100
AcDbEntity
  8
2
370
    50
100
AcDbLine
 10
73.549042
 20
2.95287
 30
0.0
 11
73.549042
 21
-6.64713
 31
0.0
  0
LINE
  5
F9
100
AcDbEntity
  8
2
370
    50
100
AcDbLine
 10
66.549042
 20
9.65287
 30
0.0
 11
65.556349
 21
9.65287
 31
0.0
  0
LINE
  5
FA
100
AcDbEntity
  8
2
370
    50
100
AcDbLine
 10
66.549042
 20
9.65287
 30
0.0
 11
66.549042
 21
-13.34713
 31
0.0
  0
LINE
  5
FB
100
AcDbEntity
  8
2
370
    50
100
AcDbLine
 10
65.149484
 20
-13.137751
 30
0.0
 11
61.642177
 21
-8.227579
 31
0.0
  0
LINE
  5
FC
100
AcDbEntity
  8
2
370
    50
100
AcDbLine
 10
65.149484
 20
9.443492
 30
0.0
 11
61.642177
 21
4.53332
 31
0.0
  0
ARC
  5
FD
100
AcDbEntity
  8
2
370
    50
100
AcDbCircle
 10
62.049042
 20
-7.936958
 30
0.0
 40
0.5
100
AcDbArc
 50
180.0
 51
215.538
  0
ARC
  5
FE
100
AcDbEntity
  8
2
370
    50
100
AcDbCircle
 10
62.049042
 20
4.242699
 30
0.0
 40
0.5
100
AcDbArc
 50
144.462
 51
180.0
  0
ARC
  5
FF
100
AcDbEntity
  8
2
370
    50
100
AcDbCircle
 10
65.556349
 20
-12.84713
 30
0.0
 40
0.5
100
AcDbArc
 50
215.538
 51
270.0
  0
ARC
  5
100
100
AcDbEntity
  8
2
370
    50
100
AcDbCircle
 10
65.556349
 20
9.15287
 30
0.0
 40
0.5
100
AcDbArc
 50
90.0
 51
144.462
  0
LINE
  5
101
100
AcDbEntity
  8
2
370
    50
100
AcDbLine
 10
65.299042
 20
9.581581
 30
0.0
 11
65.299042
 21
-13.275841
 31
0.0
  0
LINE
  5
102
100
AcDbEntity
  8
2
370
    50
100
AcDbLine
 10
73.549042
 20
-6.64713
 30
0.0
 11
66.549042
 21
-6.64713
 31
0.0
  0
LINE
  5
103
100
AcDbEntity
  8
2
370
    50
100
AcDbLine
 10
73.549042
 20
2.95287
 30
0.0
 11
66.549042
 21
2.95287
 31
0.0
  0
LINE
  5
104
100
AcDbEntity
  8
2
370
    50
100
AcDbLine
 10
73.549042
 20
-6.64713
 30
0.0
 11
73.099042
 21
-7.09713
 31
0.0
  0
LINE
  5
105
100
AcDbEntity
  8
2
370
    50
100
AcDbLine
 10
73.549042
 20
2.95287
 30
0.0
 11
73.099042
 21
3.40287
 31
0.0
  0
LINE
  5
106
100
AcDbEntity
  8
2
370
    50
100
AcDbLine
 10
73.099042
 20
3.40287
 30
0.0
 11
73.099042
 21
-7.09713
 31
0.0
  0
LINE
  5
107
100
AcDbEntity
  8
2
370
    50
100
AcDbLine
 10
57.549042
 20
3.40287
 30
0.0
 11
61.549042
 21
3.40287
 31
0.0
  0
LINE
  5
108
100
AcDbEntity
  8
2
370
    50
100
AcDbLine
 10
66.549042
 20
3.40287
 30
0.0
 11
73.099042
 21
3.40287
 31
0.0
  0
LINE
  5
109
100
AcDbEntity
  8
2
370
    50
100
AcDbLine
 10
50.549042
 20
-7.09713
 30
0.0
 11
61.549042
 21
-7.09713
 31
0.0
  0
LINE
  5
10A
100
AcDbEntity
  8
2
370
    50
100
AcDbLine
 10
66.549042
 20
-7.09713
 30
0.0
 11
73.099042
 21
-7.09713
 31
0.0
  0
CIRCLE
  5
10B
100
AcDbEntity
  8
2
370
    50
100
AcDbCircle
 10
41.924486
 20
12.294691
 30
0.0
 40
2.375
  0
ELLIPSE
  5
10C
100
AcDbEntity
  8
2
370
    50
100
AcDbEllipse
 10
41.924486
 20
19.232191
 30
0.0
 11
2.3714689999999998
 21
0.0
 31
0.0
210
0.0
220
0.0
230
1.0
 40
0.463545
 41
0.0
 42
6.2831849999999996
  0
ELLIPSE
  5
10D
100
AcDbEntity
  8
2
370
    50
100
AcDbEllipse
 10
41.924486
 20
5.357549
 30
0.0
 11
-2.3714689999999998
 21
0.0
 31
0.0
210
0.0
220
0.0
230
1.0
 40
0.463545
 41
0.0
 42
6.2831849999999996
  0
ARC
  5
10E
100
AcDbEntity
  8
2
370
    50
100
AcDbCircle
 10
41.924486
 20
11.295049
 30
0.0
 40
7.0
100
AcDbArc
 50
243.481162
 51
298.825449
  0
LINE
  5
10F
100
AcDbEntity
  8
2
370
    50
100
AcDbLine
 10
50.549042
 20
5.794858
 30
0.0
 11
45.299486
 21
5.794858
 31
0.0
  0
LINE
  5
110
100
AcDbEntity
  8
2
370
    50
100
AcDbLine
 10
45.299486
 20
19.19487
 30
0.0
 11
57.549042
 21
19.19487
 31
0.0
  0
LINE
  5
111
100
AcDbEntity
  8
2
370
    50
100
AcDbLine
 10
57.549042
 20
19.19487
 30
0.0
 11
57.549042
 21
3.40287
 31
0.0
  0
LINE
  5
112
100
AcDbEntity
  8
2
370
    50
100
AcDbLine
 10
50.549042
 20
11.760717
 30
0.0
 11
50.549042
 21
-7.09713
 31
0.0
  0
LINE
  5
113
100
AcDbEntity
  8
2
370
    50
100
AcDbLine
 10
38.799042
 20
17.29487
 30
0.0
 11
37.549042
 21
17.29487
 31
0.0
  0
LINE
  5
114
100
AcDbEntity
  8
2
370
    50
100
AcDbLine
 10
38.799042
 20
7.29487
 30
0.0
 11
37.549042
 21
7.29487
 31
0.0
  0
LINE
  5
115
100
AcDbEntity
  8
2
370
    50
100
AcDbLine
 10
35.174255
 20
7.29487
 30
0.0
 11
35.174255
 21
3.370046
 31
0.0
  0
LINE
  5
116
100
AcDbEntity
  8
2
370
    50
100
AcDbLine
 10
22.924255
 20
11.050089
 30
0.0
 11
22.924255
 21
3.370046
 31
0.0
  0
LINE
  5
117
100
AcDbEntity
  8
2
370
    50
100
AcDbLine
 10
65.556349
 20
-13.34713
 30
0.0
 11
66.549042
 21
-13.34713
 31
0.0
  0
POINT
  5
118
100
AcDbEntity
  8
2
370
    50
100
AcDbPoint
 10
41.924486
 20
12.294691
 30
0.0
  0
POINT
  5
119
100
AcDbEntity
  8
2
370
    50
100
AcDbPoint
 10
-154.700623
 20
12.29487
 30
0.0
  0
POINT
  5
11A
100
AcDbEntity
  8
2
370
    50
100
AcDbPoint
 10
-120.950791
 20
3.370046
 30
0.0
  0
LINE
  5
11B
100
AcDbEntity
  8
2
370
    50
100
AcDbLine
 10
32.999178
 20
-4.159033
 30
0.0
 11
32.999178
 21
-2.774161
 31
0.0
  0
LINE
  5
11C
100
AcDbEntity
  8
2
370
    50
100
AcDbLine
 10
25.099178
 20
-4.159033
 30
0.0
 11
25.099178
 21
-2.774161
 31
0.0
  0
LINE
  5
11D
100
AcDbEntity
  8
2
370
    50
100
AcDbLine
 10
25.099178
 20
-2.774161
 30
0.0
 11
23.698009
 21
-2.774161
 31
0.0
  0
LINE
  5
11E
100
AcDbEntity
  8
2
370
    50
100
AcDbLine
 10
36.831414
 20
1.225839
 30
0.0
 11
36.831414
 21
-0.274161
 31
0.0
  0
ARC
  5
11F
100
AcDbEntity
  8
2
370
    50
100
AcDbCircle
 10
34.331414
 20
-0.274161
 30
0.0
 40
2.5
100
AcDbArc
 50
270.0
 51
360.0
  0
ARC
  5
120
100
AcDbEntity
  8
2
370
    50
100
AcDbCircle
 10
35.831414
 20
1.225839
 30
0.0
 40
1.0
100
AcDbArc
 50
360.0
 51
90.0
  0
LINE
  5
121
100
AcDbEntity
  8
2
370
    50
100
AcDbLine
 10
23.292914
 20
2.225839
 30
0.0
 11
23.310414
 21
2.225839
 31
0.0
  0
LINE
  5
122
100
AcDbEntity
  8
2
370
    50
100
AcDbLine
 10
25.099178
 20
2.225839
 30
0.0
 11
35.831414
 21
2.225839
 31
0.0
  0
LINE
  5
123
100
AcDbEntity
  8
2
370
    50
100
AcDbLine
 10
34.331414
 20
-2.774161
 30
0.0
 11
25.099178
 21
-2.774161
 31
0.0
  0
LINE
  5
124
100
AcDbEntity
  8
2
370
    50
100
AcDbLine
 10
22.19633
 20
2.225839
 30
0.0
 11
25.099178
 21
2.225839
 31
0.0
  0
LINE
  5
125
100
AcDbEntity
  8
2
370
    50
100
AcDbLine
 10
33.481414
 20
-0.274161
 30
0.0
 11
32.481414
 21
-0.274161
 31
0.0
  0
LINE
  5
126
100
AcDbEntity
  8
2
370
    50
100
AcDbLine
 10
33.481414
 20
1.225839
 30
0.0
 11
32.481414
 21
1.225839
 31
0.0
  0
LINE
  5
127
100
AcDbEntity
  8
2
370
    50
100
AcDbLine
 10
33.481414
 20
1.225839
 30
0.0
 11
33.481414
 21
-0.274161
 31
0.0
  0
LINE
  5
128
100
AcDbEntity
  8
2
370
    50
100
AcDbLine
 10
32.481414
 20
1.225839
 30
0.0
 11
32.481414
 21
-0.274161
 31
0.0
  0
ARC
  5
129
100
AcDbEntity
  8
2
370
    50
100
AcDbCircle
 10
29.131414
 20
-3.885411
 30
0.0
 40
6.11125
100
AcDbArc
 50
56.758486
 51
90.0
  0
ARC
  5
12A
100
AcDbEntity
  8
2
370
    50
100
AcDbCircle
 10
35.831414
 20
-0.274161
 30
0.0
 40
1.0
100
AcDbArc
 50
270.0
 51
360.0
  0
ARC
  5
12B
100
AcDbEntity
  8
2
370
    50
100
AcDbCircle
 10
29.131414
 20
4.837089
 30
0.0
 40
6.11125
100
AcDbArc
 50
269.228979
 51
303.241514
  0
LINE
  5
12C
100
AcDbEntity
  8
2
370
    50
100
AcDbLine
 10
35.831414
 20
-1.274161
 30
0.0
 11
34.811539
 21
-1.274161
 31
0.0
  0
ARC
  5
12D
100
AcDbEntity
  8
2
370
    50
100
AcDbCircle
 10
34.896476
 20
0.223432
 30
0.0
 40
1.5
100
AcDbArc
 50
199.373743
 51
273.246122
  0
ARC
  5
12E
100
AcDbEntity
  8
2
370
    50
100
AcDbCircle
 10
34.896476
 20
0.728246
 30
0.0
 40
1.5
100
AcDbArc
 50
86.753878
 51
160.626257
  0
ARC
  5
12F
100
AcDbEntity
  8
2
370
    50
100
AcDbCircle
 10
28.966943
 20
4.837089
 30
0.0
 40
6.11125
100
AcDbArc
 50
236.758486
 51
270.771021
  0
ARC
  5
130
100
AcDbEntity
  8
2
370
    50
100
AcDbCircle
 10
28.966943
 20
-3.885411
 30
0.0
 40
6.11125
100
AcDbArc
 50
90.0
 51
123.241514
  0
LINE
  5
131
100
AcDbEntity
  8
2
370
    50
100
AcDbLine
 10
25.616943
 20
1.225839
 30
0.0
 11
25.616943
 21
-0.274161
 31
0.0
  0
LINE
  5
132
100
AcDbEntity
  8
2
370
    50
100
AcDbLine
 10
24.616943
 20
1.225839
 30
0.0
 11
25.616943
 21
1.225839
 31
0.0
  0
LINE
  5
133
100
AcDbEntity
  8
2
370
    50
100
AcDbLine
 10
24.616943
 20
-0.274161
 30
0.0
 11
25.616943
 21
-0.274161
 31
0.0
  0
LINE
  5
134
100
AcDbEntity
  8
2
370
    50
100
AcDbLine
 10
24.616943
 20
1.225839
 30
0.0
 11
24.616943
 21
-0.274161
 31
0.0
  0
ARC
  5
135
100
AcDbEntity
  8
2
370
    50
100
AcDbCircle
 10
23.201881
 20
0.223432
 30
0.0
 40
1.5
100
AcDbArc
 50
266.753878
 51
340.626257
  0
LINE
  5
136
100
AcDbEntity
  8
2
370
    50
100
AcDbLine
 10
22.266943
 20
-1.274161
 30
0.0
 11
23.286818
 21
-1.274161
 31
0.0
  0
ARC
  5
137
100
AcDbEntity
  8
2
370
    50
100
AcDbCircle
 10
22.266943
 20
-0.274161
 30
0.0
 40
1.0
100
AcDbArc
 50
180.0
 51
270.0
  0
ARC
  5
138
100
AcDbEntity
  8
2
370
    50
100
AcDbCircle
 10
23.201881
 20
0.728246
 30
0.0
 40
1.5
100
AcDbArc
 50
19.373743
 51
93.246122
  0
LINE
  5
139
100
AcDbEntity
  8
2
370
    50
100
AcDbLine
 10
21.266943
 20
1.225839
 30
0.0
 11
21.266943
 21
-0.274161
 31
0.0
  0
ARC
  5
13A
100
AcDbEntity
  8
2
370
    50
100
AcDbCircle
 10
22.266943
 20
1.225839
 30
0.0
 40
1.0
100
AcDbArc
 50
90.0
 51
180.0
  0
ARC
  5
13B
100
AcDbEntity
  8
2
370
    50
100
AcDbCircle
 10
23.766943
 20
-0.274161
 30
0.0
 40
2.5
100
AcDbArc
 50
180.0
 51
270.0
  0
LINE
  5
13C
100
AcDbEntity
  8
2
370
    50
100
AcDbLine
 10
22.924255
 20
3.370046
 30
0.0
 11
35.174255
 21
3.370046
 31
0.0
  0
LINE
  5
13D
100
AcDbEntity
  8
2
370
    50
100
AcDbLine
 10
34.799042
 20
3.370046
 30
0.0
 11
34.799042
 21
2.225839
 31
0.0
  0
LINE
  5
13E
100
AcDbEntity
  8
2
370
    50
100
AcDbLine
 10
23.299042
 20
3.370046
 30
0.0
 11
23.299042
 21
2.225839
 31
0.0
  0
LINE
  5
13F
100
AcDbEntity
  8
2
370
    50
100
AcDbLine
 10
-124.900867
 20
-2.774161
 30
0.0
 11
-126.302036
 21
-2.774161
 31
0.0
  0
LINE
  5
140
100
AcDbEntity
  8
2
370
    50
100
AcDbLine
 10
-113.168631
 20
1.225839
 30
0.0
 11
-113.168631
 21
-0.274161
 31
0.0
  0
ARC
  5
141
100
AcDbEntity
  8
2
370
    50
100
AcDbCircle
 10
-115.668631
 20
-0.274161
 30
0.0
 40
2.5
100
AcDbArc
 50
270.0
 51
360.0
  0
ARC
  5
142
100
AcDbEntity
  8
2
370
    50
100
AcDbCircle
 10
-114.168631
 20
1.225839
 30
0.0
 40
1.0
100
AcDbArc
 50
360.0
 51
90.0
  0
LINE
  5
143
100
AcDbEntity
  8
2
370
    50
100
AcDbLine
 10
-126.707131
 20
2.225839
 30
0.0
 11
-126.689631
 21
2.225839
 31
0.0
  0
LINE
  5
144
100
AcDbEntity
  8
2
370
    50
100
AcDbLine
 10
-124.900867
 20
2.225839
 30
0.0
 11
-114.168631
 21
2.225839
 31
0.0
  0
LINE
  5
145
100
AcDbEntity
  8
2
370
    50
100
AcDbLine
 10
-115.668631
 20
-2.774161
 30
0.0
 11
-124.900867
 21
-2.774161
 31
0.0
  0
LINE
  5
146
100
AcDbEntity
  8
2
370
    50
100
AcDbLine
 10
-127.803715
 20
2.225839
 30
0.0
 11
-124.900867
 21
2.225839
 31
0.0
  0
LINE
  5
147
100
AcDbEntity
  8
2
370
    50
100
AcDbLine
 10
-116.518631
 20
-0.274161
 30
0.0
 11
-117.518631
 21
-0.274161
 31
0.0
  0
LINE
  5
148
100
AcDbEntity
  8
2
370
    50
100
AcDbLine
 10
-116.518631
 20
1.225839
 30
0.0
 11
-117.518631
 21
1.225839
 31
0.0
  0
LINE
  5
149
100
AcDbEntity
  8
2
370
    50
100
AcDbLine
 10
-116.518631
 20
1.225839
 30
0.0
 11
-116.518631
 21
-0.274161
 31
0.0
  0
LINE
  5
14A
100
AcDbEntity
  8
2
370
    50
100
AcDbLine
 10
-117.518631
 20
1.225839
 30
0.0
 11
-117.518631
 21
-0.274161
 31
0.0
  0
ARC
  5
14B
100
AcDbEntity
  8
2
370
    50
100
AcDbCircle
 10
-120.868631
 20
-3.885411
 30
0.0
 40
6.11125
100
AcDbArc
 50
56.758486
 51
90.0
  0
ARC
  5
14C
100
AcDbEntity
  8
2
370
    50
100
AcDbCircle
 10
-114.168631
 20
-0.274161
 30
0.0
 40
1.0
100
AcDbArc
 50
270.0
 51
360.0
  0
ARC
  5
14D
100
AcDbEntity
  8
2
370
    50
100
AcDbCircle
 10
-120.868631
 20
4.837089
 30
0.0
 40
6.11125
100
AcDbArc
 50
269.228979
 51
303.241514
  0
LINE
  5
14E
100
AcDbEntity
  8
2
370
    50
100
AcDbLine
 10
-114.168631
 20
-1.274161
 30
0.0
 11
-115.188506
 21
-1.274161
 31
0.0
  0
ARC
  5
14F
100
AcDbEntity
  8
2
370
    50
100
AcDbCircle
 10
-115.103569
 20
0.223432
 30
0.0
 40
1.5
100
AcDbArc
 50
199.373743
 51
273.246122
  0
ARC
  5
150
100
AcDbEntity
  8
2
370
    50
100
AcDbCircle
 10
-115.103569
 20
0.728246
 30
0.0
 40
1.5
100
AcDbArc
 50
86.753878
 51
160.626257
  0
ARC
  5
151
100
AcDbEntity
  8
2
370
    50
100
AcDbCircle
 10
-121.033102
 20
4.837089
 30
0.0
 40
6.11125
100
AcDbArc
 50
236.758486
 51
270.771021
  0
ARC
  5
152
100
AcDbEntity
  8
2
370
    50
100
AcDbCircle
 10
-121.033102
 20
-3.885411
 30
0.0
 40
6.11125
100
AcDbArc
 50
90.0
 51
123.241514
  0
LINE
  5
153
100
AcDbEntity
  8
2
370
    50
100
AcDbLine
 10
-124.383102
 20
1.225839
 30
0.0
 11
-124.383102
 21
-0.274161
 31
0.0
  0
LINE
  5
154
100
AcDbEntity
  8
2
370
    50
100
AcDbLine
 10
-125.383102
 20
1.225839
 30
0.0
 11
-124.383102
 21
1.225839
 31
0.0
  0
LINE
  5
155
100
AcDbEntity
  8
2
370
    50
100
AcDbLine
 10
-125.383102
 20
-0.274161
 30
0.0
 11
-124.383102
 21
-0.274161
 31
0.0
  0
LINE
  5
156
100
AcDbEntity
  8
2
370
    50
100
AcDbLine
 10
-125.383102
 20
1.225839
 30
0.0
 11
-125.383102
 21
-0.274161
 31
0.0
  0
ARC
  5
157
100
AcDbEntity
  8
2
370
    50
100
AcDbCircle
 10
-126.798164
 20
0.223432
 30
0.0
 40
1.5
100
AcDbArc
 50
266.753878
 51
340.626257
  0
LINE
  5
158
100
AcDbEntity
  8
2
370
    50
100
AcDbLine
 10
-127.733102
 20
-1.274161
 30
0.0
 11
-126.713227
 21
-1.274161
 31
0.0
  0
ARC
  5
159
100
AcDbEntity
  8
2
370
    50
100
AcDbCircle
 10
-127.733102
 20
-0.274161
 30
0.0
 40
1.0
100
AcDbArc
 50
180.0
 51
270.0
  0
ARC
  5
15A
100
AcDbEntity
  8
2
370
    50
100
AcDbCircle
 10
-126.798164
 20
0.728246
 30
0.0
 40
1.5
100
AcDbArc
 50
19.373743
 51
93.246122
  0
LINE
  5
15B
100
AcDbEntity
  8
2
370
    50
100
AcDbLine
 10
-128.733102
 20
1.225839
 30
0.0
 11
-128.733102
 21
-0.274161
 31
0.0
  0
ARC
  5
15C
100
AcDbEntity
  8
2
370
    50
100
AcDbCircle
 10
-127.733102
 20
1.225839
 30
0.0
 40
1.0
100
AcDbArc
 50
90.0
 51
180.0
  0
ARC
  5
15D
100
AcDbEntity
  8
2
370
    50
100
AcDbCircle
 10
-126.233102
 20
-0.274161
 30
0.0
 40
2.5
100
AcDbArc
 50
180.0
 51
270.0
  0
LINE
  5
15E
100
AcDbEntity
  8
2
370
    50
100
AcDbLine
 10
-115.201003
 20
3.370046
 30
0.0
 11
-115.201003
 21
2.225839
 31
0.0
  0
LINE
  5
15F
100
AcDbEntity
  8
2
370
    50
100
AcDbLine
 10
-126.701003
 20
3.370046
 30
0.0
 11
-126.701003
 21
2.225839
 31
0.0
  0
LINE
  5
160
100
AcDbEntity
  8
2
370
    50
100
AcDbLine
 10
32.999042
 20
-9.151959
 30
0.0
 11
32.999042
 21
-2.774161
 31
0.0
  0
LINE
  5
161
100
AcDbEntity
  8
2
370
    50
100
AcDbLine
 10
25.099042
 20
-5.347334
 30
0.0
 11
25.099042
 21
-2.774161
 31
0.0
  0
LINE
  5
162
100
AcDbEntity
  8
2
370
    50
100
AcDbLine
 10
16.609523
 20
-17.76579
 30
0.0
 11
21.48856
 21
-22.644827
 31
0.0
  0
LINE
  5
163
100
AcDbEntity
  8
2
370
    50
100
AcDbLine
 10
22.195667
 20
-22.644827
 30
0.0
 11
25.024094
 21
-19.8164
 31
0.0
  0
LINE
  5
164
100
AcDbEntity
  8
2
370
    50
100
AcDbLine
 10
16.609523
 20
-17.058684
 30
0.0
 11
19.43795
 21
-14.230256
 31
0.0
  0
LINE
  5
165
100
AcDbEntity
  8
2
370
    50
100
AcDbLine
 10
19.43795
 20
-14.230256
 30
0.0
 11
25.024094
 21
-19.8164
 31
0.0
  0
LINE
  5
166
100
AcDbEntity
  8
2
370
    50
100
AcDbLine
 10
25.377647
 20
-19.8164
 30
0.0
 11
25.572102
 21
-19.621946
 31
0.0
  0
LINE
  5
167
100
AcDbEntity
  8
2
370
    50
100
AcDbLine
 10
19.43795
 20
-13.876703
 30
0.0
 11
19.632405
 21
-13.682249
 31
0.0
  0
LINE
  5
168
100
AcDbEntity
  8
2
370
    50
100
AcDbLine
 10
19.43795
 20
-14.230256
 30
0.0
 11
19.43795
 21
-13.876703
 31
0.0
  0
LINE
  5
169
100
AcDbEntity
  8
2
370
    50
100
AcDbLine
 10
25.024094
 20
-19.8164
 30
0.0
 11
25.377647
 21
-19.8164
 31
0.0
  0
LINE
  5
16A
100
AcDbEntity
  8
2
370
    50
100
AcDbLine
 10
25.377647
 20
-19.8164
 30
0.0
 11
19.43795
 21
-13.876703
 31
0.0
  0
LINE
  5
16B
100
AcDbEntity
  8
2
370
    50
100
AcDbLine
 10
21.435527
 20
-11.985192
 30
0.0
 11
27.269158
 21
-17.818823
 31
0.0
  0
LINE
  5
16C
100
AcDbEntity
  8
2
370
    50
100
AcDbLine
 10
25.572102
 20
-18.52593
 30
0.0
 11
26.279209
 21
-17.818823
 31
0.0
  0
LINE
  5
16D
100
AcDbEntity
  8
2
370
    50
100
AcDbLine
 10
20.72842
 20
-13.682249
 30
0.0
 11
21.435527
 21
-12.975142
 31
0.0
  0
LINE
  5
16E
100
AcDbEntity
  8
2
370
    50
100
AcDbLine
 10
27.269158
 20
-17.818823
 30
0.0
 11
26.279209
 21
-17.818823
 31
0.0
  0
LINE
  5
16F
100
AcDbEntity
  8
2
370
    50
100
AcDbLine
 10
21.435527
 20
-11.985192
 30
0.0
 11
21.435527
 21
-12.975142
 31
0.0
  0
LINE
  5
170
100
AcDbEntity
  8
2
370
    50
100
AcDbLine
 10
26.279209
 20
-17.818823
 30
0.0
 11
21.435527
 21
-12.975142
 31
0.0
  0
LINE
  5
171
100
AcDbEntity
  8
2
370
    50
100
AcDbLine
 10
25.572102
 20
-18.52593
 30
0.0
 11
20.72842
 21
-13.682249
 31
0.0
  0
LINE
  5
172
100
AcDbEntity
  8
2
370
    50
100
AcDbLine
 10
25.572102
 20
-18.52593
 30
0.0
 11
25.572102
 21
-19.621946
 31
0.0
  0
LINE
  5
173
100
AcDbEntity
  8
2
370
    50
100
AcDbLine
 10
20.72842
 20
-13.682249
 30
0.0
 11
19.632405
 21
-13.682249
 31
0.0
  0
LINE
  5
174
100
AcDbEntity
  8
2
370
    50
100
AcDbLine
 10
21.435527
 20
-11.985192
 30
0.0
 11
22.617521
 21
-10.92092
 31
0.0
  0
LINE
  5
175
100
AcDbEntity
  8
2
370
    50
100
AcDbLine
 10
27.269158
 20
-17.818823
 30
0.0
 11
31.457911
 21
-13.166742
 31
0.0
  0
ARC
  5
176
100
AcDbEntity
  8
2
370
    50
100
AcDbCircle
 10
17.599042
 20
-5.347334
 30
0.0
 40
7.5
100
AcDbArc
 50
312.0
 51
360.0
  0
ARC
  5
177
100
AcDbEntity
  8
2
370
    50
100
AcDbCircle
 10
26.999042
 20
-9.151959
 30
0.0
 40
6.0
100
AcDbArc
 50
318.0
 51
0.0
  0
ARC
  5
178
100
AcDbEntity
  8
2
370
    50
100
AcDbCircle
 10
21.842114
 20
-22.291274
 30
0.0
 40
0.5
100
AcDbArc
 50
225.0
 51
315.0
  0
ARC
  5
179
100
AcDbEntity
  8
2
370
    50
100
AcDbCircle
 10
16.963077
 20
-17.412237
 30
0.0
 40
0.5
100
AcDbArc
 50
135.0
 51
225.0
  0
LINE
  5
17A
100
AcDbEntity
  8
2
370
    50
100
AcDbLine
 10
29.049042
 20
4.794691
 30
0.0
 11
29.049042
 21
-44.53499
 31
0.0
  0
LINE
  5
17B
100
AcDbEntity
  8
2
370
    50
100
AcDbLine
 10
-120.950791
 20
3.370046
 30
0.0
 11
-120.950791
 21
-22.92518
 31
0.0
  0
POINT
  5
17C
100
AcDbEntity
  8
2
370
    50
100
AcDbPoint
 10
-120.950791
 20
-20.205309
 30
0.0
  0
ELLIPSE
  5
17D
100
AcDbEntity
  8
2
370
    50
100
AcDbEllipse
 10
-120.950791
 20
-20.205309
 30
0.0
 11
-3.9500000000000002
 21
0.0
 31
0.0
210
0.0
220
0.0
230
1.0
 40
0.617595
 41
0.0
 42
6.2831849999999996
  0
ELLIPSE
  5
17E
100
AcDbEntity
  8
2
370
    50
100
AcDbEllipse
 10
-120.950791
 20
-20.205309
 30
0.0
 11
-2.75
 21
0.0
 31
0.0
210
0.0
220
0.0
230
1.0
 40
0.707091
 41
0.0
 42
6.2831849999999996
  0
ELLIPSE
  5
17F
100
AcDbEntity
  8
2
370
    50
100
AcDbEllipse
 10
-120.950791
 20
-17.023328
 30
0.0
 11
3.9500000000000002
 21
0.0
 31
0.0
210
0.0
220
0.0
230
1.0
 40
0.707089
 41
0.0
 42
3.1415929999999999
  0
ELLIPSE
  5
180
100
AcDbEntity
  8
2
370
    50
100
AcDbEllipse
 10
-120.950791
 20
-16.977869
 30
0.0
 11
4.2000000000000002
 21
0.0
 31
0.0
210
0.0
220
0.0
230
1.0
 40
0.738393
 41
5.9364179999999998
 42
3.4883600000000001
  0
LINE
  5
181
100
AcDbEntity
  8
2
370
    50
100
AcDbLine
 10
-117.000791
 20
-20.205309
 30
0.0
 11
-117.000791
 21
-17.023328
 31
0.0
  0
LINE
  5
182
100
AcDbEntity
  8
2
370
    50
100
AcDbLine
 10
-117.000791
 20
-14.061454
 30
0.0
 11
-117.000791
 21
-2.774161
 31
0.0
  0
LINE
  5
183
100
AcDbEntity
  8
2
370
    50
100
AcDbLine
 10
-124.900791
 20
-20.205309
 30
0.0
 11
-124.900791
 21
-17.023328
 31
0.0
  0
LINE
  5
184
100
AcDbEntity
  8
2
370
    50
100
AcDbLine
 10
-124.900791
 20
-14.061454
 30
0.0
 11
-124.900791
 21
-2.774161
 31
0.0
  0
ELLIPSE
  5
185
100
AcDbEntity
  8
2
370
    50
100
AcDbEllipse
 10
-120.950791
 20
-16.652097
 30
0.0
 11
4.2000000000000002
 21
0.0
 31
0.0
210
0.0
220
0.0
230
1.0
 40
0.707083
 41
6.2294989999999997
 42
3.1952790000000002
  0
ELLIPSE
  5
186
100
AcDbEntity
  8
2
370
    50
100
AcDbEllipse
 10
-120.950791
 20
-15.396983
 30
0.0
 11
3.4249999999999998
 21
0.0
 31
0.0
210
0.0
220
0.0
230
1.0
 40
0.70708
 41
0.264804
 42
2.8802370000000002
  0
ELLIPSE
  5
187
100
AcDbEntity
  8
2
370
    50
100
AcDbEllipse
 10
-120.950791
 20
-14.902008
 30
0.0
 11
4.125
 21
0.0
 31
0.0
210
0.0
220
0.0
230
1.0
 40
0.707091
 41
6.0255239999999999
 42
3.4025449999999999
  0
ELLIPSE
  5
188
100
AcDbEntity
  8
2
370
    50
100
AcDbEllipse
 10
-120.950791
 20
-10.268409
 30
0.0
 11
3.4249999999999998
 21
0.0
 31
0.0
210
0.0
220
0.0
230
1.0
 40
0.70708
 41
0.794969
 42
2.444604
  0
POINT
  5
189
100
AcDbEntity
  8
2
370
    50
100
AcDbPoint
 10
19.049042
 20
-20.205309
 30
0.0
  0
LINE
  5
18A
100
AcDbEntity
  8
3
370
    25
100
AcDbLine
 10
29.049042
 20
-71.026487
 30
0.0
 11
30.980893
 21
-71.544125
 31
0.0
  0
LINE
  5
18B
100
AcDbEntity
  8
3
370
    25
100
AcDbLine
 10
29.049042
 20
-71.026487
 30
0.0
 11
30.980893
 21
-70.508849
 31
0.0
  0
LINE
  5
18C
100
AcDbEntity
  8
3
370
    25
100
AcDbLine
 10
30.980893
 20
-71.544125
 30
0.0
 11
30.980893
 21
-70.508849
 31
0.0
  0
LINE
  5
18D
100
AcDbEntity
  8
3
370
    25
100
AcDbLine
 10
29.049042
 20
-71.026487
 30
0.0
 11
66.549042
 21
-71.026487
 31
0.0
  0
LINE
  5
18E
100
AcDbEntity
  8
3
370
    25
100
AcDbLine
 10
66.549042
 20
-71.026487
 30
0.0
 11
64.61719
 21
-70.508849
 31
0.0
  0
LINE
  5
18F
100
AcDbEntity
  8
3
370
    25
100
AcDbLine
 10
66.549042
 20
-71.026487
 30
0.0
 11
64.61719
 21
-71.544125
 31
0.0
  0
LINE
  5
190
100
AcDbEntity
  8
3
370
    25
100
AcDbLine
 10
64.61719
 20
-70.508849
 30
0.0
 11
64.61719
 21
-71.544125
 31
0.0
  0
LINE
  5
191
100
AcDbEntity
  8
3
370
    25
100
AcDbLine
 10
66.549042
 20
-13.84713
 30
0.0
 11
66.549042
 21
-72.026487
 31
0.0
  0
LINE
  5
192
100
AcDbEntity
  8
3
370
    25
100
AcDbLine
 10
-168.842958
 20
-2.34713
 30
0.0
 11
-168.842958
 21
-72.026487
 31
0.0
  0
LINE
  5
193
100
AcDbEntity
  8
3
370
    25
100
AcDbLine
 10
-168.842958
 20
-71.026487
 30
0.0
 11
-166.911107
 21
-71.544125
 31
0.0
  0
LINE
  5
194
100
AcDbEntity
  8
3
370
    25
100
AcDbLine
 10
-168.842958
 20
-71.026487
 30
0.0
 11
-166.911107
 21
-70.508849
 31
0.0
  0
LINE
  5
195
100
AcDbEntity
  8
3
370
    25
100
AcDbLine
 10
-166.911107
 20
-71.544125
 30
0.0
 11
-166.911107
 21
-70.508849
 31
0.0
  0
LINE
  5
196
100
AcDbEntity
  8
3
370
    25
100
AcDbLine
 10
-168.842958
 20
-71.026487
 30
0.0
 11
-73.058958
 21
-71.026487
 31
0.0
  0
LINE
  5
197
100
AcDbEntity
  8
3
370
    25
100
AcDbLine
 10
-73.058958
 20
-71.026487
 30
0.0
 11
-74.99081
 21
-70.508849
 31
0.0
  0
LINE
  5
198
100
AcDbEntity
  8
3
370
    25
100
AcDbLine
 10
-73.058958
 20
-71.026487
 30
0.0
 11
-74.99081
 21
-71.544125
 31
0.0
  0
LINE
  5
199
100
AcDbEntity
  8
3
370
    25
100
AcDbLine
 10
-74.99081
 20
-70.508849
 30
0.0
 11
-74.99081
 21
-71.544125
 31
0.0
  0
LINE
  5
19A
100
AcDbEntity
  8
3
370
    25
100
AcDbLine
 10
-73.058958
 20
-2.34713
 30
0.0
 11
-73.058958
 21
-72.026487
 31
0.0
  0
LINE
  5
19B
100
AcDbEntity
  8
3
370
    25
100
AcDbLine
 10
-154.700958
 20
49.79487
 30
0.0
 11
-154.700958
 21
71.247179
 31
0.0
  0
LINE
  5
19C
100
AcDbEntity
  8
3
370
    25
100
AcDbLine
 10
-154.700958
 20
70.247179
 30
0.0
 11
-152.769107
 21
69.729541
 31
0.0
  0
LINE
  5
19D
100
AcDbEntity
  8
3
370
    25
100
AcDbLine
 10
-154.700958
 20
70.247179
 30
0.0
 11
-152.769107
 21
70.764817
 31
0.0
  0
LINE
  5
19E
100
AcDbEntity
  8
3
370
    25
100
AcDbLine
 10
-152.769107
 20
69.729541
 30
0.0
 11
-152.769107
 21
70.764817
 31
0.0
  0
LINE
  5
19F
100
AcDbEntity
  8
3
370
    25
100
AcDbLine
 10
-154.700958
 20
70.247179
 30
0.0
 11
-87.200958
 21
70.247179
 31
0.0
  0
LINE
  5
1A0
100
AcDbEntity
  8
3
370
    25
100
AcDbLine
 10
-87.200958
 20
70.247179
 30
0.0
 11
-89.13281
 21
70.764817
 31
0.0
  0
LINE
  5
1A1
100
AcDbEntity
  8
3
370
    25
100
AcDbLine
 10
-87.200958
 20
70.247179
 30
0.0
 11
-89.13281
 21
69.729541
 31
0.0
  0
LINE
  5
1A2
100
AcDbEntity
  8
3
370
    25
100
AcDbLine
 10
-89.13281
 20
70.764817
 30
0.0
 11
-89.13281
 21
69.729541
 31
0.0
  0
LINE
  5
1A3
100
AcDbEntity
  8
3
370
    25
100
AcDbLine
 10
-87.200958
 20
49.79487
 30
0.0
 11
-87.200958
 21
71.247179
 31
0.0
  0
TEXT
  5
1A4
100
AcDbEntity
  8
3
370
    50
100
AcDbText
 10
32.95002
 20
-69.009932
 30
0.0
 40
16.0
  1
７５
 72
     5
 11
61.75002
 21
-69.009932
 31
0.0
100
AcDbText
  0
TEXT
  5
1A5
100
AcDbEntity
  8
3
370
    50
100
AcDbText
 10
-144.380356
 20
71.809656
 30
0.0
 40
16.0
  1
１３５
 72
     5
 11
-99.580356
 21
71.809656
 31
0.0
100
AcDbText
  0
TEXT
  5
1A6
100
AcDbEntity
  8
3
370
    50
100
AcDbText
 10
-169.019409
 20
-69.474669
 30
0.0
 40
16.0
  1
ＭＡＸ２１０
 72
     5
 11
-76.219409
 21
-69.474669
 31
0.0
100
AcDbText
  0
LWPOLYLINE
  5
1A7
100
AcDbEntity
  8
3
370
    25
100
AcDbPolyline
 90
        3
 70
     0
 10
70.141098
 20
-7.662804
 10
94.315323
 20
-37.406855
 10
173.346207
 20
-37.406855
  0
LINE
  5
1AC
100
AcDbEntity
  8
3
370
    25
100
AcDbLine
 10
71.359528
 20
-9.161964
 30
0.0
 11
71.761226
 21
-8.835486
 31
0.0
  0
LINE
  5
1AD
100
AcDbEntity
  8
3
370
    25
100
AcDbLine
 10
71.761226
 20
-8.835486
 30
0.0
 11
70.141098
 21
-7.662804
 31
0.0
  0
LINE
  5
1AE
100
AcDbEntity
  8
3
370
    25
100
AcDbLine
 10
70.141098
 20
-7.662804
 30
0.0
 11
70.957829
 21
-9.488441
 31
0.0
  0
LINE
  5
1AF
100
AcDbEntity
  8
3
370
    25
100
AcDbLine
 10
70.957829
 20
-9.488441
 30
0.0
 11
71.359528
 21
-9.161964
 31
0.0
  0
TEXT
  5
1B0
100
AcDbEntity
  8
3
370
    50
100
AcDbText
 10
94.78009
 20
-36.477346
 30
0.0
 40
16.0
  1
ＰＪ１／２
 72
     5
 11
171.58009
 21
-36.477346
 31
0.0
100
AcDbText
  0
LINE
  5
1B1
100
AcDbEntity
  8
3
370
    25
100
AcDbLine
 10
29.049042
 20
-5.350309
 30
0.0
 11
29.049042
 21
-71.719641
 31
0.0
  0
LINE
  5
1B2
100
AcDbEntity
  8
3
370
    25
100
AcDbLine
 10
19.049042
 20
-20.705309
 30
0.0
 11
19.049042
 21
-71.930998
 31
0.0
  0
LINE
  5
1B3
100
AcDbEntity
  8
3
370
    25
100
AcDbLine
 10
19.049042
 20
-70.930998
 30
0.0
 11
17.11719
 21
-70.41336
 31
0.0
  0
LINE
  5
1B4
100
AcDbEntity
  8
3
370
    25
100
AcDbLine
 10
19.049042
 20
-70.930998
 30
0.0
 11
17.11719
 21
-71.448636
 31
0.0
  0
LINE
  5
1B5
100
AcDbEntity
  8
3
370
    25
100
AcDbLine
 10
17.11719
 20
-70.41336
 30
0.0
 11
17.11719
 21
-71.448636
 31
0.0
  0
LINE
  5
1B6
100
AcDbEntity
  8
3
370
    25
100
AcDbLine
 10
-8.679459
 20
-70.930998
 30
0.0
 11
34.049042
 21
-70.930998
 31
0.0
  0
LINE
  5
1B7
100
AcDbEntity
  8
3
370
    25
100
AcDbLine
 10
29.049042
 20
-70.930998
 30
0.0
 11
30.980893
 21
-71.448636
 31
0.0
  0
LINE
  5
1B8
100
AcDbEntity
  8
3
370
    25
100
AcDbLine
 10
29.049042
 20
-70.930998
 30
0.0
 11
30.980893
 21
-70.41336
 31
0.0
  0
LINE
  5
1B9
100
AcDbEntity
  8
3
370
    25
100
AcDbLine
 10
30.980893
 20
-71.448636
 30
0.0
 11
30.980893
 21
-70.41336
 31
0.0
  0
TEXT
  5
1BA
100
AcDbEntity
  8
3
370
    50
100
AcDbText
 10
-11.559078
 20
-69.576269
 30
0.0
 40
16.0
  1
２０
 72
     5
 11
17.240922
 21
-69.576269
 31
0.0
100
AcDbText
  0
LINE
  5
1BB
100
AcDbEntity
  8
3
370
    25
100
AcDbLine
 10
18.549042
 20
-20.205309
 30
0.0
 11
-14.252947
 21
-20.205309
 31
0.0
  0
LINE
  5
1BC
100
AcDbEntity
  8
3
370
    25
100
AcDbLine
 10
-13.252947
 20
-20.205309
 30
0.0
 11
-12.735309
 21
-18.273457
 31
0.0
  0
LINE
  5
1BD
100
AcDbEntity
  8
3
370
    25
100
AcDbLine
 10
-13.252947
 20
-20.205309
 30
0.0
 11
-13.770585
 21
-18.273457
 31
0.0
  0
LINE
  5
1BE
100
AcDbEntity
  8
3
370
    25
100
AcDbLine
 10
-12.735309
 20
-18.273457
 30
0.0
 11
-13.770585
 21
-18.273457
 31
0.0
  0
LINE
  5
1BF
100
AcDbEntity
  8
3
370
    25
100
AcDbLine
 10
-13.252947
 20
-20.205309
 30
0.0
 11
-13.252947
 21
12.294691
 31
0.0
  0
LINE
  5
1C0
100
AcDbEntity
  8
3
370
    25
100
AcDbLine
 10
-13.252947
 20
12.294691
 30
0.0
 11
-13.770585
 21
10.36284
 31
0.0
  0
LINE
  5
1C1
100
AcDbEntity
  8
3
370
    25
100
AcDbLine
 10
-13.252947
 20
12.294691
 30
0.0
 11
-12.735309
 21
10.36284
 31
0.0
  0
LINE
  5
1C2
100
AcDbEntity
  8
3
370
    25
100
AcDbLine
 10
-13.770585
 20
10.36284
 30
0.0
 11
-12.735309
 21
10.36284
 31
0.0
  0
LINE
  5
1C3
100
AcDbEntity
  8
3
370
    25
100
AcDbLine
 10
41.424486
 20
12.294691
 30
0.0
 11
-14.252947
 21
12.294691
 31
0.0
  0
TEXT
  5
1C4
100
AcDbEntity
  8
3
370
    50
100
AcDbText
 10
-12.575385
 20
-20.63722
 30
0.0
 40
16.0
  1
６５
 50
90.0
 72
     5
 11
-12.575385
 21
8.16278
 31
0.0
100
AcDbText
  0
ENDSEC
  0
SECTION
  2
OBJECTS
  0
DICTIONARY
  5
1C5
100
AcDbDictionary
280
     0
281
     1
  3
ACAD_GROUP
350
1C6
  3
ACAD_MLINESTYLE
350
1C7
  0
DICTIONARY
  5
1C6
102
{ACAD_REACTORS
330
1C5
102
}
100
AcDbDictionary
280
     0
281
     1
  0
DICTIONARY
  5
1C7
102
{ACAD_REACTORS
330
1C5
102
}
100
AcDbDictionary
280
     0
281
     1
  3
Standard
350
1C8
  0
MLINESTYLE
  5
1C8
102
{ACAD_REACTORS
330
1C7
102
}
100
AcDbMlineStyle
  2
Standard
 70
     0
  3

 62
     0
 51
90.0
 52
90.0
 71
     2
 49
0.5
 62
   256
  6
ByLayer
 49
-0.5
 62
   256
  6
ByLayer
  0
ENDSEC
  0
EOF
