  0
SECTION
  2
HEADER
  9
$ACADVER
  1
AC1015
  9
$ACADMAINTVER
 70
     6
  9
$DWGCODEPAGE
  3
ANSI_932
  9
$INSBASE
 10
0.0
 20
0.0
 30
0.0
  9
$EXTMIN
 10
-420.0
 20
-297.0
 30
1.000000E+20
  9
$EXTMAX
 10
420.0
 20
297.0
 30
-1.000000E+20
  9
$LIMMIN
 10
-420.0
 20
-297.0
  9
$LIMMAX
 10
420.0
 20
297.0
  9
$ORTHOMODE
 70
     0
  9
$REGENMODE
 70
     1
  9
$FILLMODE
 70
     1
  9
$QTEXTMODE
 70
     0
  9
$MIRRTEXT
 70
     1
  9
$LTSCALE
 40
1.0
  9
$ATTMODE
 70
     1
  9
$TEXTSIZE
 40
0.2
  9
$TRACEWID
 40
0.05
  9
$TEXTSTYLE
  7
STANDARD
  9
$CLAYER
  8
0
  9
$CELTYPE
  6
CONTINUOUS
  9
$CECOLOR
 62
   256
  9
$CELTSCALE
 40
1.0
  9
$DISPSILH
 70
     0
  9
$DIMSCALE
 40
2.0
  9
$DIMASZ
 40
2.0
  9
$DIMEXO
 40
1.0
  9
$DIMDLI
 40
0.38
  9
$DIMRND
 40
0.0
  9
$DIMDLE
 40
0.0
  9
$DIMEXE
 40
2.0
  9
$DIMTP
 40
0.0
  9
$DIMTM
 40
0.0
  9
$DIMTXT
 40
3.5
  9
$DIMCEN
 40
0.09
  9
$DIMTSZ
 40
0.0
  9
$DIMTOL
 70
     0
  9
$DIMLIM
 70
     0
  9
$DIMTIH
 70
     0
  9
$DIMTOH
 70
     0
  9
$DIMSE1
 70
     0
  9
$DIMSE2
 70
     0
  9
$DIMTAD
 70
     1
  9
$DIMZIN
 70
     0
  9
$DIMBLK
  1

  9
$DIMASO
 70
     1
  9
$DIMSHO
 70
     1
  9
$DIMPOST
  1

  9
$DIMAPOST
  1

  9
$DIMALT
 70
     0
  9
$DIMALTD
 70
     2
  9
$DIMALTF
 40
25.4
  9
$DIMLFAC
 40
1.0
  9
$DIMTOFL
 70
     0
  9
$DIMTVP
 40
0.0
  9
$DIMTIX
 70
     0
  9
$DIMSOXD
 70
     0
  9
$DIMSAH
 70
     0
  9
$DIMBLK1
  1

  9
$DIMBLK2
  1

  9
$DIMSTYLE
  2
Standard
  9
$DIMCLRD
 70
     0
  9
$DIMCLRE
 70
     0
  9
$DIMCLRT
 70
     0
  9
$DIMTFAC
 40
1.0
  9
$DIMGAP
 40
0.5
  9
$DIMJUST
 70
     0
  9
$DIMSD1
 70
     0
  9
$DIMSD2
 70
     0
  9
$DIMTOLJ
 70
     1
  9
$DIMTZIN
 70
     0
  9
$DIMALTZ
 70
     0
  9
$DIMALTTZ
 70
     0
  9
$DIMUPT
 70
     0
  9
$DIMDEC
 70
     3
  9
$DIMTDEC
 70
     4
  9
$DIMALTU
 70
     2
  9
$DIMALTTD
 70
     2
  9
$DIMTXSTY
  7
STANDARD
  9
$DIMAUNIT
 70
     0
  9
$DIMADEC
 70
     2
  9
$DIMALTRND
 40
0.0
  9
$DIMAZIN
 70
     0
  9
$DIMDSEP
 70
     0
  9
$DIMATFIT
 70
     3
  9
$DIMFRAC
 70
     0
  9
$DIMLDRBLK
  1

  9
$DIMLUNIT
 70
     2
  9
$DIMLWD
 70
     0
  9
$DIMLWE
 70
     0
  9
$DIMTMOVE
 70
     0
  9
$LUNITS
 70
     2
  9
$LUPREC
 70
     4
  9
$SKETCHINC
 40
0.1
  9
$FILLETRAD
 40
0.0
  9
$AUNITS
 70
     0
  9
$AUPREC
 70
     0
  9
$MENU
  1
acad
  9
$ELEVATION
 40
0.0
  9
$PELEVATION
 40
0.0
  9
$THICKNESS
 40
0.0
  9
$LIMCHECK
 70
     0
  9
$CHAMFERA
 40
0.0
  9
$CHAMFERB
 40
0.0
  9
$CHAMFERC
 40
0.0
  9
$CHAMFERD
 40
0.0
  9
$SKPOLY
 70
     0
  9
$TDCREATE
 40
2459501.000000000
  9
$TDUCREATE
 40
0.000000000
  9
$TDUPDATE
 40
0.000000000
  9
$TDUUPDATE
 40
2447892.625000000
  9
$TDINDWG
 40
0.0000000000
  9
$TDUSRTIMER
 40
0.0000000000
  9
$USRTIMER
 70
     1
  9
$ANGBASE
 50
0.0
  9
$ANGDIR
 70
     0
  9
$PDMODE
 70
     0
  9
$PDSIZE
 40
0.0
  9
$PLINEWID
 40
0.0
  9
$SPLFRAME
 70
     0
  9
$SPLINETYPE
 70
     6
  9
$SPLINESEGS
 70
     8
  9
$HANDSEED
  5
174
  9
$SURFTAB1
 70
     6
  9
$SURFTAB2
 70
     6
  9
$SURFTYPE
 70
     6
  9
$SURFU
 70
     6
  9
$SURFV
 70
     6
  9
$UCSBASE
  2

  9
$UCSNAME
  2

  9
$UCSORG
 10
0.0
 20
0.0
 30
0.0
  9
$UCSXDIR
 10
1.0
 20
0.0
 30
0.0
  9
$UCSYDIR
 10
0.0
 20
1.0
 30
0.0
  9
$UCSORTHOREF
  2

  9
$UCSORTHOVIEW
 70
     0
  9
$UCSORGTOP
 10
0.0
 20
0.0
 30
0.0
  9
$UCSORGBOTTOM
 10
0.0
 20
0.0
 30
0.0
  9
$UCSORGLEFT
 10
0.0
 20
0.0
 30
0.0
  9
$UCSORGRIGHT
 10
0.0
 20
0.0
 30
0.0
  9
$UCSORGFRONT
 10
0.0
 20
0.0
 30
0.0
  9
$UCSORGBACK
 10
0.0
 20
0.0
 30
0.0
  9
$PUCSBASE
  2

  9
$PUCSNAME
  2

  9
$PUCSORG
 10
0.0
 20
0.0
 30
0.0
  9
$PUCSXDIR
 10
1.0
 20
0.0
 30
0.0
  9
$PUCSYDIR
 10
0.0
 20
1.0
 30
0.0
  9
$PUCSORTHOREF
  2

  9
$PUCSORTHOVIEW
 70
     0
  9
$PUCSORGTOP
 10
0.0
 20
0.0
 30
0.0
  9
$PUCSORGBOTTOM
 10
0.0
 20
0.0
 30
0.0
  9
$PUCSORGLEFT
 10
0.0
 20
0.0
 30
0.0
  9
$PUCSORGRIGHT
 10
0.0
 20
0.0
 30
0.0
  9
$PUCSORGFRONT
 10
0.0
 20
0.0
 30
0.0
  9
$PUCSORGBACK
 10
0.0
 20
0.0
 30
0.0
  9
$USERI1
 70
     0
  9
$USERI2
 70
     0
  9
$USERI3
 70
     0
  9
$USERI4
 70
     0
  9
$USERI5
 70
     0
  9
$USERR1
 40
0.0
  9
$USERR2
 40
0.0
  9
$USERR3
 40
0.0
  9
$USERR4
 40
0.0
  9
$USERR5
 40
0.0
  9
$WORLDVIEW
 70
     1
  9
$SHADEDGE
 70
     3
  9
$SHADEDIF
 70
    70
  9
$TILEMODE
 70
     1
  9
$MAXACTVP
 70
    16
  9
$PINSBASE
 10
0.0
 20
0.0
 30
0.0
  9
$PLIMCHECK
 70
     0
  9
$PEXTMIN
 10
1.000000E+20
 20
1.000000E+20
 30
1.000000E+20
  9
$PEXTMAX
 10
-1.000000E+20
 20
-1.000000E+20
 30
-1.000000E+20
  9
$PLIMMIN
 10
0.0
 20
0.0
  9
$PLIMMAX
 10
12.0
 20
9.0
  9
$UNITMODE
 70
     0
  9
$VISRETAIN
 70
     0
  9
$PLINEGEN
 70
     1
  9
$PSLTSCALE
 70
     0
  9
$TREEDEPTH
 70
  3020
  9
$CMLSTYLE
  2
Standard
  9
$CMLJUST
 70
     0
  9
$CMLSCALE
 40
1.0
  9
$PROXYGRAPHICS
 70
     0
  9
$MEASUREMENT
 70
     0
  9
$CELWEIGHT
370
     0
  9
$ENDCAPS
280
     0
  9
$JOINSTYLE
280
     0
  9
$LWDISPLAY
290
     0
  9
$INSUNITS
 70
     0
  9
$HYPERLINKBASE
  1

  9
$STYLESHEET
  1

  9
$XEDIT
290
     1
  9
$CEPSNTYPE
380
     0
  9
$PSTYLEMODE
290
     1
  9
$FINGERPRINTGUID
  2

  9
$VERSIONGUID
  2

  9
$EXTNAMES
290
     1
  9
$PSVPSCALE
 40
0.0
  0
ENDSEC
  0
SECTION
  2
CLASSES
  0
CLASS
  1
LWPOLYLINE
  2
AcDbPolyline
  3
AutoCAD 2000
 90
        0
280
     0
281
     1
  0
CLASS
  1
IMAGE
  2
AcDbRasterImage
  3
ISM
 90
      127
280
     0
281
     1
  0
CLASS
  1
OLE2FRAME
  2
AcDbOle2Frame
  3
AutoCAD 2000
 90
        0
280
     0
281
     1
  0
CLASS
  1
HATCH
  2
AcDbHatch
  3
AutoCAD 2000
 90
        0
280
     0
281
     1
  0
CLASS
  1
DICTIONARYVAR
  2
AcDbDictionaryVar
  3
AutoCAD 2000
 90
        0
280
     0
281
     0
  0
CLASS
  1
RASTERVARIABLES
  2
AcDbRasterVariables
  3
ISM
 90
        0
280
     0
281
     0
  0
CLASS
  1
IMAGEDEF
  2
AcDbRasterImageDef
  3
ISM
 90
        0
280
     0
281
     0
  0
CLASS
  1
IMAGEDEF_REACTOR
  2
AcDbRasterImageDefReactor
  3
ISM
 90
        1
280
     0
281
     0
  0
CLASS
  1
IDBUFFER
  2
AcDbIdBuffer
  3
AutoCAD 2000
 90
        0
280
     0
281
     0
  0
CLASS
  1
SPATIAL_FILTER
  2
AcDbSpatialFilter
  3
AutoCAD 2000
 90
        0
280
     0
281
     0
  0
CLASS
  1
XRECORD
  2
AcDbXrecord
  3
AutoCAD 2000
 90
        0
280
     0
281
     0
  0
CLASS
  1
SORTENTSTABLE
  2
AcDbSortentsTable
  3
AutoCAD 2000
 90
        0
280
     0
281
     0
  0
CLASS
  1
LAYER_INDEX
  2
AcDbLayerIndex
  3
AutoCAD 2000
 90
        0
280
     0
281
     0
  0
CLASS
  1
SPATIAL_INDEX
  2
AcDbSpatialIndex
  3
AutoCAD 2000
 90
        0
280
     0
281
     0
  0
CLASS
  1
OBJECT_PTR
  2
CAseDLPNTableRecord
  3
"ASE-LPNTableRecord"
 90
        1
280
     0
281
     0
  0
CLASS
  1
LAYOUT
  2
AcDbLayout
  3
AutoCAD 2000
 90
        0
280
     0
281
     0
  0
CLASS
  1
PLOTSETTINGS
  2
AcDbPlotSettings
  3
AutoCAD 2000
 90
        0
280
     0
281
     0
  0
CLASS
  1
ACDBDICTIONARYWDFLT
  2
AcDbDictionaryWithDefault
  3
AutoCAD 2000
 90
        0
280
     0
281
     0
  0
CLASS
  1
ACDBPLACEHOLDER
  2
AcDbPlaceHolder
  3
AutoCAD 2000
 90
        0
280
     0
281
     0
  0
CLASS
  1
VBA_PROJECT
  2
AcDbVbaProject
  3
acadvba
 90
        0
280
     0
281
     0
  0
CLASS
  1
WIPEOUT
  2
AcDbWipeout
  3
WipeOut|AutoCAD Express Tool|expresstools@autodesk.com
 90
      127
280
     0
281
     1
  0
CLASS
  1
WIPEOUTVARIABLES
  2
AcDbWipeoutVariables
  3
WipeOut|AutoCAD Express Tool|expresstools@autodesk.com
 90
        0
280
     0
281
     0
  0
CLASS
  1
RTEXT
  2
RText
  3
RText|AutoCAD Express Tool|expresstools@autodesk.com
 90
        0
280
     0
281
     1
  0
CLASS
  1
ARCALIGNEDTEXT
  2
AcDbArcAlignedText
  3
ATEXT|AutoCAD Express Tool|expresstools@autodesk.com
 90
        0
280
     0
281
     1
  0
ENDSEC
  0
SECTION
  2
TABLES
  0
TABLE
  2
VPORT
  5
6
100
AcDbSymbolTable
 70
     1
  0
VPORT
  5
19
100
AcDbSymbolTableRecord
100
AcDbViewportTableRecord
  2
*ACTIVE
 70
     0
 10
0.0
 20
0.0
 11
1.0
 21
1.0
 12
0.0
 22
0.0
 13
0.0
 23
0.0
 14
1.0
 24
1.0
 15
0.0
 25
0.0
 16
0.0
 26
0.0
 36
1.0
 17
0.0
 27
0.0
 37
0.0
 40
594.0
 41
1.414141
 42
50.0
 43
0.0
 44
0.0
 50
0.0
 51
0.0
 71
     0
 72
   500
 73
     1
 74
     1
 75
     0
 76
     0
 77
     0
 78
     0
281
     0
 65
     0
110
0.0
120
0.0
130
0.0
111
1.0
121
0.0
131
0.0
112
0.0
122
1.0
132
0.0
345
0
346
0
 79
     0
146
0.0
  0
ENDTAB
  0
TABLE
  2
LTYPE
  5
3
100
AcDbSymbolTable
 70
     9
  0
LTYPE
  5
C
100
AcDbSymbolTableRecord
100
AcDbLinetypeTableRecord
  2
ByBlock
 70
    64
  3

 72
    65
 73
     0
 40
0.0
  0
LTYPE
  5
D
100
AcDbSymbolTableRecord
100
AcDbLinetypeTableRecord
  2
ByLayer
 70
    64
  3

 72
    65
 73
     0
 40
0.0
  0
LTYPE
  5
E
100
AcDbSymbolTableRecord
100
AcDbLinetypeTableRecord
  2
CONTINUOUS
 70
     0
  3
Solid line
 72
    65
 73
     0
 40
0.0
  0
LTYPE
  5
F
100
AcDbSymbolTableRecord
100
AcDbLinetypeTableRecord
  2
DASHED
 70
     0
  3
__ __ __ __ __ __ __ __ __ __ __ __ __ __ __
 72
    65
 73
     2
 40
2.0
 49
1.2
 74
     0
 49
-0.8
 74
     0
  0
LTYPE
  5
10
100
AcDbSymbolTableRecord
100
AcDbLinetypeTableRecord
  2
CENTER
 70
     0
  3
____ _ ____ _ ____ _ ____ _ ____ _ ____ _ ____
 72
    65
 73
     4
 40
12.0
 49
9.0
 74
     0
 49
-1.0
 74
     0
 49
1.0
 74
     0
 49
-1.0
 74
     0
  0
LTYPE
  5
11
100
AcDbSymbolTableRecord
100
AcDbLinetypeTableRecord
  2
HIDDEN
 70
     0
  3
_ _ _ _ _ _ _ _ _ _ _ _ _ _ _ _ _ _ _ _ _ _ _
 72
    65
 73
     2
 40
3.2
 49
2.4
 74
     0
 49
-0.8
 74
     0
  0
LTYPE
  5
12
100
AcDbSymbolTableRecord
100
AcDbLinetypeTableRecord
  2
PHANTOM
 70
     0
  3
_____ _ _ _____ _ _ _____ _ _ _____ _ _ _____
 72
    65
 73
     6
 40
13.5
 49
9.0
 74
     0
 49
-1.0
 74
     0
 49
1.0
 74
     0
 49
-0.5
 74
     0
 49
1.0
 74
     0
 49
-1.0
 74
     0
  0
LTYPE
  5
13
100
AcDbSymbolTableRecord
100
AcDbLinetypeTableRecord
  2
DOT
 70
     0
  3
...............................................
 72
    65
 73
     2
 40
1.0
 49
0.5
 74
     0
 49
-0.5
 74
     0
  0
LTYPE
  5
14
100
AcDbSymbolTableRecord
100
AcDbLinetypeTableRecord
  2
DASHDOT
 70
     0
  3
__ . __ . __ . __ . __ . __ . __ . __ . __ . __
 72
    65
 73
     4
 40
8.0
 49
5.0
 74
     0
 49
-1.0
 74
     0
 49
1.0
 74
     0
 49
-1.0
 74
     0
  0
ENDTAB
  0
TABLE
  2
LAYER
  5
1
100
AcDbSymbolTable
 70
     4
  0
LAYER
  5
15
100
AcDbSymbolTableRecord
100
AcDbLayerTableRecord
  2
0
 70
     0
 62
   225
  6
CONTINUOUS
290
     1
370
    -3
390
0
  0
LAYER
  5
16
100
AcDbSymbolTableRecord
100
AcDbLayerTableRecord
  2
1
 70
     0
 62
     2
  6
CONTINUOUS
290
     1
370
    -3
390
0
  0
LAYER
  5
17
100
AcDbSymbolTableRecord
100
AcDbLayerTableRecord
  2
2
 70
     0
 62
     3
  6
CONTINUOUS
290
     1
370
    -3
390
0
  0
LAYER
  5
18
100
AcDbSymbolTableRecord
100
AcDbLayerTableRecord
  2
3
 70
     0
 62
     4
  6
CONTINUOUS
290
     1
370
    -3
390
0
  0
ENDTAB
  0
TABLE
  2
STYLE
  5
2
100
AcDbSymbolTable
 70
     1
  0
STYLE
  5
1B
100
AcDbSymbolTableRecord
100
AcDbTextStyleTableRecord
  2
STANDARD
 70
    64
 40
0.0
 41
1.0
 50
0.0
 71
     0
 42
1.0
  3
txt
  4
BIGFONT
  0
ENDTAB
  0
TABLE
  2
VIEW
  5
4
100
AcDbSymbolTable
 70
     0
  0
ENDTAB
  0
TABLE
  2
UCS
  5
5
100
AcDbSymbolTable
 70
     0
  0
ENDTAB
  0
TABLE
  2
APPID
  5
7
100
AcDbSymbolTable
 70
     1
  0
APPID
  5
1A
100
AcDbSymbolTableRecord
100
AcDbRegAppTableRecord
  2
ACAD
 70
     0
  0
ENDTAB
  0
TABLE
  2
DIMSTYLE
  5
8
100
AcDbSymbolTable
 70
     1
100
AcDbDimStyleTable
 71
     0
  0
DIMSTYLE
105
23
100
AcDbSymbolTableRecord
100
AcDbDimStyleTableRecord
  2
Standard
 70
     0
  3

  4

 40
2.0
 41
2.0
 42
1.0
 43
0.38
 44
2.0
 45
0.0
 46
0.0
 47
0.0
 48
0.0
 71
     0
 72
     0
 73
     0
 74
     0
 75
     0
 76
     0
 77
     1
 78
     0
 79
     0
140
3.5
141
0.09
142
0.0
143
25.4
144
1.0
145
0.0
146
1.0
147
0.5
148
0.0
170
     0
171
     2
172
     0
173
     0
174
     0
175
     0
176
     0
177
     0
178
     0
179
     0
271
     3
272
     4
273
     2
274
     2
275
     0
276
     0
277
     2
278
    46
279
     0
280
     0
281
     0
282
     0
283
     1
284
     0
285
     0
286
     0
288
     0
289
     3
340
1B
341
0
342
0
343
0
344
0
371
    -2
372
    -2
  0
ENDTAB
  0
TABLE
  2
BLOCK_RECORD
  5
1E
100
AcDbSymbolTable
 70
     0
  0
BLOCK_RECORD
  5
1C
100
AcDbSymbolTableRecord
100
AcDbBlockTableRecord
  2
*Model_Space
340
0
  0
BLOCK_RECORD
  5
1D
100
AcDbSymbolTableRecord
100
AcDbBlockTableRecord
  2
*Paper_Space
340
0
  0
ENDTAB
  0
ENDSEC
  0
SECTION
  2
BLOCKS
  0
BLOCK
  5
1F
100
AcDbEntity
  8
0
390
0
100
AcDbBlockBegin
  2
*Model_Space
 70
     0
 10
0.0
 20
0.0
 30
0.0
  3
*Model_Space
  1

  0
ENDBLK
  5
20
100
AcDbEntity
  8
0
390
0
100
AcDbBlockEnd
  0
BLOCK
  5
21
100
AcDbEntity
 67
     1
  8
0
390
0
100
AcDbBlockBegin
  2
*Paper_Space
 70
     0
 10
0.0
 20
0.0
 30
0.0
  3
*Paper_Space
  1

  0
ENDBLK
  5
22
100
AcDbEntity
 67
     1
  8
0
390
0
100
AcDbBlockEnd
  0
ENDSEC
  0
SECTION
  2
ENTITIES
  0
LINE
  5
24
100
AcDbEntity
  8
1
370
   100
100
AcDbLine
 10
-395.515918
 20
300.256005
 30
0.0
 11
372.488037
 21
300.256005
 31
0.0
  0
LINE
  5
25
100
AcDbEntity
  8
1
370
   100
100
AcDbLine
 10
-395.515918
 20
300.256005
 30
0.0
 11
-395.515918
 21
-252.744644
 31
0.0
  0
LINE
  5
26
100
AcDbEntity
  8
1
370
   100
100
AcDbLine
 10
-395.515918
 20
-252.744644
 30
0.0
 11
372.488037
 21
-252.744644
 31
0.0
  0
LINE
  5
27
100
AcDbEntity
  8
1
370
   100
100
AcDbLine
 10
372.488037
 20
-252.744644
 30
0.0
 11
372.488037
 21
300.256005
 31
0.0
  0
TEXT
  5
28
100
AcDbEntity
  8
1
370
    50
100
AcDbText
 10
337.134094
 20
-201.02562
 30
0.0
 40
6.0
  1
設計
 72
     5
 11
347.934094
 21
-201.02562
 31
0.0
100
AcDbText
  0
TEXT
  5
29
100
AcDbEntity
  8
1
370
    50
100
AcDbText
 10
356.63313
 20
-200.872421
 30
0.0
 40
6.0
  1
製図
 72
     5
 11
367.43313
 21
-200.872421
 31
0.0
100
AcDbText
  0
TEXT
  5
2A
100
AcDbEntity
  8
1
370
    50
100
AcDbText
 10
296.511397
 20
-201.02562
 30
0.0
 40
6.0
  1
承認
 72
     5
 11
307.311397
 21
-201.02562
 31
0.0
100
AcDbText
  0
TEXT
  5
2B
100
AcDbEntity
  8
1
370
    50
100
AcDbText
 10
316.495331
 20
-200.970782
 30
0.0
 40
6.0
  1
検図
 72
     5
 11
327.295331
 21
-200.970782
 31
0.0
100
AcDbText
  0
LINE
  5
2C
100
AcDbEntity
  8
1
370
    25
100
AcDbLine
 10
262.488037
 20
-202.744644
 30
0.0
 11
372.488037
 21
-202.744644
 31
0.0
  0
LINE
  5
2D
100
AcDbEntity
  8
1
370
    25
100
AcDbLine
 10
319.988037
 20
-220.744644
 30
0.0
 11
319.988037
 21
-234.744644
 31
0.0
  0
TEXT
  5
2E
100
AcDbEntity
  8
1
370
    50
100
AcDbText
 10
297.057242
 20
-230.785291
 30
0.0
 40
6.0
  1
日　付
 72
     5
 11
313.857242
 21
-230.785291
 31
0.0
100
AcDbText
  0
LINE
  5
2F
100
AcDbEntity
  8
1
370
    50
100
AcDbLine
 10
18.488037
 20
-234.744644
 30
0.0
 11
372.488037
 21
-234.744644
 31
0.0
  0
TEXT
  5
30
100
AcDbEntity
  8
1
370
    50
100
AcDbText
 10
265.280663
 20
-231.095169
 30
0.0
 40
6.0
  1
第三角法
 72
     5
 11
288.080663
 21
-231.095169
 31
0.0
100
AcDbText
  0
TEXT
  5
31
100
AcDbEntity
  8
1
370
    50
100
AcDbText
 10
268.593071
 20
-200.770782
 30
0.0
 40
6.0
  1
尺　度
 72
     5
 11
285.393071
 21
-200.770782
 31
0.0
100
AcDbText
  0
LINE
  5
32
100
AcDbEntity
  8
1
370
   100
100
AcDbLine
 10
18.488037
 20
-192.744644
 30
0.0
 11
372.488037
 21
-192.744644
 31
0.0
  0
LINE
  5
33
100
AcDbEntity
  8
1
370
    50
100
AcDbLine
 10
189.488037
 20
-192.744644
 30
0.0
 11
189.488037
 21
-252.744644
 31
0.0
  0
LINE
  5
34
100
AcDbEntity
  8
1
370
    25
100
AcDbLine
 10
352.488037
 20
-220.744644
 30
0.0
 11
352.488037
 21
-192.744644
 31
0.0
  0
LINE
  5
35
100
AcDbEntity
  8
1
370
    25
100
AcDbLine
 10
332.488037
 20
-220.744644
 30
0.0
 11
332.488037
 21
-192.744644
 31
0.0
  0
LINE
  5
36
100
AcDbEntity
  8
1
370
    25
100
AcDbLine
 10
312.488037
 20
-220.744644
 30
0.0
 11
312.488037
 21
-192.744644
 31
0.0
  0
LINE
  5
37
100
AcDbEntity
  8
1
370
    50
100
AcDbLine
 10
262.488037
 20
-252.744644
 30
0.0
 11
262.488037
 21
-192.744644
 31
0.0
  0
LINE
  5
38
100
AcDbEntity
  8
1
370
    50
100
AcDbLine
 10
167.488037
 20
-192.744644
 30
0.0
 11
167.488037
 21
-252.744644
 31
0.0
  0
LINE
  5
39
100
AcDbEntity
  8
1
370
    50
100
AcDbLine
 10
40.488037
 20
-192.744644
 30
0.0
 11
40.488037
 21
-234.744644
 31
0.0
  0
LINE
  5
3A
100
AcDbEntity
  8
1
370
    50
100
AcDbLine
 10
262.488037
 20
-220.744644
 30
0.0
 11
372.488037
 21
-220.744644
 31
0.0
  0
TEXT
  5
3B
100
AcDbEntity
  8
1
370
    50
100
AcDbText
 10
264.606781
 20
-246.653702
 30
0.0
 40
6.0
  1
コードＮｏ
 41
0.9
 72
     5
 11
290.526781
 21
-246.653702
 31
0.0
100
AcDbText
  0
TEXT
  5
3C
100
AcDbEntity
  8
1
370
   100
100
AcDbText
 10
30.392426
 20
-247.648422
 30
0.0
 40
8.0
  1
ミズタニバルブ工業株式会社
 41
1.2
 72
     5
 11
153.272426
 21
-247.648422
 31
0.0
100
AcDbText
  0
LINE
  5
3D
100
AcDbEntity
  8
1
370
    50
100
AcDbLine
 10
18.488037
 20
-213.744644
 30
0.0
 11
262.488037
 21
-213.744644
 31
0.0
  0
LINE
  5
3E
100
AcDbEntity
  8
1
370
    50
100
AcDbLine
 10
92.988037
 20
-213.744644
 30
0.0
 11
92.988037
 21
-234.744644
 31
0.0
  0
LINE
  5
3F
100
AcDbEntity
  8
1
370
    50
100
AcDbLine
 10
114.988037
 20
-213.744644
 30
0.0
 11
114.988037
 21
-234.744644
 31
0.0
  0
LINE
  5
40
100
AcDbEntity
  8
1
370
    50
100
AcDbLine
 10
292.488037
 20
-252.744644
 30
0.0
 11
292.488037
 21
-192.744644
 31
0.0
  0
TEXT
  5
41
100
AcDbEntity
  8
1
370
    50
100
AcDbText
 10
322.603783
 20
-230.873056
 30
0.0
 40
6.0
  1
　　・　　・
 72
     5
 11
357.403783
 21
-230.873056
 31
0.0
100
AcDbText
  0
LINE
  5
42
100
AcDbEntity
  8
1
370
   100
100
AcDbLine
 10
18.488037
 20
-192.744644
 30
0.0
 11
18.488037
 21
-252.744644
 31
0.0
  0
TEXT
  5
43
100
AcDbEntity
  8
1
370
    50
100
AcDbText
 10
268.338234
 20
-214.786255
 30
0.0
 40
6.0
  1
　／ 
 72
     5
 11
279.138234
 21
-214.786255
 31
0.0
100
AcDbText
  0
TEXT
  5
44
100
AcDbEntity
  8
1
370
    50
100
AcDbText
 10
171.409774
 20
-246.797672
 30
0.0
 40
6.0
  1
備 考 
 72
     5
 11
185.209774
 21
-246.797672
 31
0.0
100
AcDbText
  0
TEXT
  5
45
100
AcDbEntity
  8
1
370
    50
100
AcDbText
 10
171.018185
 20
-205.664603
 30
0.0
 40
6.0
  1
仕 上
 72
     5
 11
184.818185
 21
-205.664603
 31
0.0
100
AcDbText
  0
TEXT
  5
46
100
AcDbEntity
  8
1
370
    50
100
AcDbText
 10
170.952828
 20
-223.664429
 30
0.0
 40
6.0
  1
表 面
 72
     5
 11
184.752828
 21
-223.664429
 31
0.0
100
AcDbText
  0
TEXT
  5
47
100
AcDbEntity
  8
1
370
    50
100
AcDbText
 10
170.952828
 20
-230.664429
 30
0.0
 40
6.0
  1
処 理
 72
     5
 11
184.752828
 21
-230.664429
 31
0.0
100
AcDbText
  0
TEXT
  5
48
100
AcDbEntity
  8
1
370
    50
100
AcDbText
 10
22.299002
 20
-206.466162
 30
0.0
 40
6.0
  1
品 名
 72
     5
 11
36.099002
 21
-206.466162
 31
0.0
100
AcDbText
  0
TEXT
  5
49
100
AcDbEntity
  8
1
370
    50
100
AcDbText
 10
21.903418
 20
-227.235297
 30
0.0
 40
6.0
  1
材 質
 72
     5
 11
35.703418
 21
-227.235297
 31
0.0
100
AcDbText
  0
TEXT
  5
4A
100
AcDbEntity
  8
1
370
    50
100
AcDbText
 10
96.403418
 20
-227.235297
 30
0.0
 40
6.0
  1
規 格
 72
     5
 11
110.203418
 21
-227.235297
 31
0.0
100
AcDbText
  0
TEXT
  5
4B
100
AcDbEntity
  8
2
370
    50
100
AcDbText
 10
322.603783
 20
-230.873056
 30
0.0
 40
6.0
  1
００　００　００
 72
     5
 11
369.403783
 21
-230.873056
 31
0.0
100
AcDbText
  0
TEXT
  5
4C
100
AcDbEntity
  8
2
370
    50
100
AcDbText
 10
268.338234
 20
-214.786255
 30
0.0
 40
6.0
  1
１　２
 72
     5
 11
285.138234
 21
-214.786255
 31
0.0
100
AcDbText
  0
TEXT
  5
4D
100
AcDbEntity
  8
2
370
    50
100
AcDbText
 10
312.710349
 20
-245.929631
 30
0.0
 40
6.0
  1
３０１０００
 72
     5
 11
347.510349
 21
-245.929631
 31
0.0
100
AcDbText
  0
TEXT
  5
4E
100
AcDbEntity
  8
2
370
    50
100
AcDbText
 10
45.575005
 20
-200.82623
 30
0.0
 40
6.0
  1
壁付２ハンドル湯水混合水栓
 72
     5
 11
122.375005
 21
-200.82623
 31
0.0
100
AcDbText
  0
TEXT
  5
4F
100
AcDbEntity
  8
2
370
    50
100
AcDbText
 10
46.200691
 20
-210.726959
 30
0.0
 40
7.0
  1
Ｋ１３－４３７
 72
     5
 11
93.800691
 21
-210.726959
 31
0.0
100
AcDbText
  0
POINT
  5
50
100
AcDbEntity
  8
3
370
    50
100
AcDbPoint
 10
-51.898483
 20
-1.011139
 30
0.0
  0
LINE
  5
51
100
AcDbEntity
  8
3
370
    50
100
AcDbLine
 10
-307.398483
 20
18.188861
 30
0.0
 11
-307.398483
 21
21.988861
 31
0.0
  0
LINE
  5
52
100
AcDbEntity
  8
3
370
    50
100
AcDbLine
 10
-196.398483
 20
18.188861
 30
0.0
 11
-196.398483
 21
21.988861
 31
0.0
  0
LINE
  5
53
100
AcDbEntity
  8
3
370
    50
100
AcDbLine
 10
-172.398483
 20
13.095597
 30
0.0
 11
-172.398483
 21
21.988861
 31
0.0
  0
ARC
  5
54
100
AcDbEntity
  8
3
370
    50
100
AcDbCircle
 10
-72.398483
 20
13.095597
 30
0.0
 40
100.0
100
AcDbArc
 50
180.0
 51
188.109614
  0
ARC
  5
55
100
AcDbEntity
  8
3
370
    50
100
AcDbCircle
 10
-201.398483
 20
-1.011139
 30
0.0
 40
30.0
100
AcDbArc
 50
340.528779
 51
360.0
  0
LINE
  5
56
100
AcDbEntity
  8
3
370
    50
100
AcDbLine
 10
-229.799615
 20
-10.211139
 30
0.0
 11
-200.363139
 21
-10.211139
 31
0.0
  0
ARC
  5
57
100
AcDbEntity
  8
3
370
    50
100
AcDbCircle
 10
-182.542302
 20
-7.677806
 30
0.0
 40
10.0
100
AcDbArc
 50
224.534076
 51
340.528779
  0
ARC
  5
58
100
AcDbEntity
  8
3
370
    50
100
AcDbCircle
 10
-200.363139
 20
-25.211139
 30
0.0
 40
15.0
100
AcDbArc
 50
44.534076
 51
90.0
  0
ARC
  5
59
100
AcDbEntity
  8
3
370
    50
100
AcDbCircle
 10
-229.799615
 20
-40.211139
 30
0.0
 40
30.0
100
AcDbArc
 50
90.0
 51
119.411984
  0
ARC
  5
5A
100
AcDbEntity
  8
3
370
    50
100
AcDbCircle
 10
-251.898483
 20
-1.011139
 30
0.0
 40
15.0
100
AcDbArc
 50
270.0
 51
299.411984
  0
ARC
  5
5B
100
AcDbEntity
  8
3
370
    50
100
AcDbCircle
 10
-273.997352
 20
-40.211139
 30
0.0
 40
30.0
100
AcDbArc
 50
60.588016
 51
90.0
  0
ARC
  5
5C
100
AcDbEntity
  8
3
370
    50
100
AcDbCircle
 10
-251.898483
 20
-1.011139
 30
0.0
 40
15.0
100
AcDbArc
 50
240.588016
 51
270.0
  0
LINE
  5
5D
100
AcDbEntity
  8
3
370
    50
100
AcDbLine
 10
-273.997352
 20
-10.211139
 30
0.0
 11
-303.433827
 21
-10.211139
 31
0.0
  0
ARC
  5
5E
100
AcDbEntity
  8
3
370
    50
100
AcDbCircle
 10
-303.433827
 20
-25.211139
 30
0.0
 40
15.0
100
AcDbArc
 50
90.0
 51
135.465924
  0
ARC
  5
5F
100
AcDbEntity
  8
3
370
    50
100
AcDbCircle
 10
-321.254664
 20
-7.677806
 30
0.0
 40
10.0
100
AcDbArc
 50
199.471221
 51
315.465924
  0
ARC
  5
60
100
AcDbEntity
  8
3
370
    50
100
AcDbCircle
 10
-302.398483
 20
-1.011139
 30
0.0
 40
30.0
100
AcDbArc
 50
180.0
 51
199.471221
  0
ARC
  5
61
100
AcDbEntity
  8
3
370
    50
100
AcDbCircle
 10
-431.398483
 20
13.095597
 30
0.0
 40
100.0
100
AcDbArc
 50
351.890386
 51
360.0
  0
LINE
  5
62
100
AcDbEntity
  8
3
370
    50
100
AcDbLine
 10
-331.398483
 20
13.095597
 30
0.0
 11
-331.398483
 21
21.988861
 31
0.0
  0
ARC
  5
63
100
AcDbEntity
  8
3
370
    50
100
AcDbCircle
 10
-206.398483
 20
18.188861
 30
0.0
 40
10.0
100
AcDbArc
 50
270.0
 51
360.0
  0
ARC
  5
64
100
AcDbEntity
  8
3
370
    50
100
AcDbCircle
 10
-297.398483
 20
18.188861
 30
0.0
 40
10.0
100
AcDbArc
 50
180.0
 51
270.0
  0
LINE
  5
65
100
AcDbEntity
  8
3
370
    50
100
AcDbLine
 10
-238.898483
 20
18.188861
 30
0.0
 11
-238.898483
 21
22.139554
 31
0.0
  0
LINE
  5
66
100
AcDbEntity
  8
3
370
    50
100
AcDbLine
 10
-264.898483
 20
18.188861
 30
0.0
 11
-264.898483
 21
22.139554
 31
0.0
  0
ARC
  5
67
100
AcDbEntity
  8
3
370
    50
100
AcDbCircle
 10
-228.898483
 20
18.188861
 30
0.0
 40
10.0
100
AcDbArc
 50
180.0
 51
270.0
  0
ARC
  5
68
100
AcDbEntity
  8
3
370
    50
100
AcDbCircle
 10
-274.898483
 20
18.188861
 30
0.0
 40
10.0
100
AcDbArc
 50
270.0
 51
360.0
  0
LINE
  5
69
100
AcDbEntity
  8
3
370
    50
100
AcDbLine
 10
-297.398483
 20
8.188861
 30
0.0
 11
-274.898483
 21
8.188861
 31
0.0
  0
LINE
  5
6A
100
AcDbEntity
  8
3
370
    50
100
AcDbLine
 10
-228.898483
 20
8.188861
 30
0.0
 11
-206.398483
 21
8.188861
 31
0.0
  0
LINE
  5
6B
100
AcDbEntity
  8
3
370
    50
100
AcDbLine
 10
-306.898483
 20
20.738861
 30
0.0
 11
-306.898483
 21
21.988861
 31
0.0
  0
ARC
  5
6C
100
AcDbEntity
  8
3
370
    50
100
AcDbCircle
 10
-319.398522
 20
-7.011139
 30
0.0
 40
80.0
100
AcDbArc
 50
84.370157
 51
95.629843
  0
LINE
  5
6D
100
AcDbEntity
  8
3
370
    50
100
AcDbLine
 10
-319.398483
 20
70.988861
 30
0.0
 11
-310.148522
 21
70.988861
 31
0.0
  0
ARC
  5
6E
100
AcDbEntity
  8
3
370
    50
100
AcDbCircle
 10
-311.648522
 20
71.607799
 30
0.0
 40
1.0
100
AcDbArc
 50
0.0
 51
84.370157
  0
ARC
  5
6F
100
AcDbEntity
  8
3
370
    50
100
AcDbCircle
 10
-244.679723
 20
43.409698
 30
0.0
 40
100.0
100
AcDbArc
 50
168.537652
 51
188.388164
  0
ARC
  5
70
100
AcDbEntity
  8
3
370
    50
100
AcDbCircle
 10
-394.117321
 20
43.409698
 30
0.0
 40
100.0
100
AcDbArc
 50
351.611836
 51
11.462348
  0
ARC
  5
71
100
AcDbEntity
  8
3
370
    50
100
AcDbCircle
 10
-319.398522
 20
-68.705225
 30
0.0
 40
140.0
100
AcDbArc
 50
93.788374
 51
96.34007
  0
ARC
  5
72
100
AcDbEntity
  8
3
370
    50
100
AcDbCircle
 10
-319.398522
 20
-68.705225
 30
0.0
 40
140.0
100
AcDbArc
 50
83.65993
 51
86.211626
  0
ARC
  5
73
100
AcDbEntity
  8
3
370
    50
100
AcDbCircle
 10
-333.864775
 20
61.493575
 30
0.0
 40
9.0
100
AcDbArc
 50
96.34007
 51
168.537652
  0
ARC
  5
74
100
AcDbEntity
  8
3
370
    50
100
AcDbCircle
 10
-304.93227
 20
61.493575
 30
0.0
 40
9.0
100
AcDbArc
 50
11.462348
 51
83.65993
  0
ARC
  5
75
100
AcDbEntity
  8
3
370
    50
100
AcDbCircle
 10
-335.695552
 20
29.988861
 30
0.0
 40
8.0
100
AcDbArc
 50
188.388164
 51
270.0
  0
ARC
  5
76
100
AcDbEntity
  8
3
370
    50
100
AcDbCircle
 10
-303.101492
 20
29.988861
 30
0.0
 40
8.0
100
AcDbArc
 50
270.0
 51
351.611836
  0
LINE
  5
77
100
AcDbEntity
  8
3
370
    50
100
AcDbLine
 10
-335.695552
 20
21.988861
 30
0.0
 11
-303.101492
 21
21.988861
 31
0.0
  0
LINE
  5
78
100
AcDbEntity
  8
3
370
    50
100
AcDbLine
 10
-328.148522
 20
71.607799
 30
0.0
 11
-328.148522
 21
70.988861
 31
0.0
  0
LINE
  5
79
100
AcDbEntity
  8
3
370
    50
100
AcDbLine
 10
-310.648522
 20
71.607799
 30
0.0
 11
-310.648522
 21
70.988861
 31
0.0
  0
ARC
  5
7A
100
AcDbEntity
  8
3
370
    50
100
AcDbCircle
 10
-327.148522
 20
71.607799
 30
0.0
 40
1.0
100
AcDbArc
 50
95.629843
 51
180.0
  0
ARC
  5
7B
100
AcDbEntity
  8
3
370
    50
100
AcDbCircle
 10
-311.648522
 20
71.607799
 30
0.0
 40
1.0
100
AcDbArc
 50
0.0
 51
84.370157
  0
ARC
  5
7C
100
AcDbEntity
  8
3
370
    50
100
AcDbCircle
 10
-319.398522
 20
-7.011139
 30
0.0
 40
80.0
100
AcDbArc
 50
84.370157
 51
95.629843
  0
LINE
  5
7D
100
AcDbEntity
  8
3
370
    50
100
AcDbLine
 10
-328.648522
 20
70.988861
 30
0.0
 11
-319.398483
 21
70.988861
 31
0.0
  0
LINE
  5
7E
100
AcDbEntity
  8
3
370
    50
100
AcDbLine
 10
-319.398483
 20
70.988861
 30
0.0
 11
-310.148522
 21
70.988861
 31
0.0
  0
ARC
  5
7F
100
AcDbEntity
  8
3
370
    50
100
AcDbCircle
 10
-429.063424
 20
42.894526
 30
0.0
 40
120.0
100
AcDbArc
 50
355.059572
 51
9.155483
  0
ARC
  5
80
100
AcDbEntity
  8
3
370
    50
100
AcDbCircle
 10
-209.733543
 20
42.894526
 30
0.0
 40
120.0
100
AcDbArc
 50
170.844517
 51
184.940428
  0
ARC
  5
81
100
AcDbEntity
  8
3
370
    50
100
AcDbCircle
 10
-319.398483
 20
60.568941
 30
0.0
 40
8.91992
100
AcDbArc
 50
9.155483
 51
170.844517
  0
ARC
  5
82
100
AcDbEntity
  8
3
370
    50
100
AcDbCircle
 10
-319.398483
 20
33.414971
 30
0.0
 40
9.926111
100
AcDbArc
 50
184.940428
 51
355.059572
  0
LINE
  5
83
100
AcDbEntity
  8
3
370
    50
100
AcDbLine
 10
-304.898483
 20
67.488861
 30
0.0
 11
-304.898483
 21
26.488861
 31
0.0
  0
LINE
  5
84
100
AcDbEntity
  8
3
370
    50
100
AcDbLine
 10
-333.898483
 20
67.488861
 30
0.0
 11
-333.898483
 21
26.488861
 31
0.0
  0
ARC
  5
85
100
AcDbEntity
  8
3
370
    50
100
AcDbCircle
 10
-394.117282
 20
43.409698
 30
0.0
 40
99.5
100
AcDbArc
 50
352.362481
 51
11.528523
  0
ARC
  5
86
100
AcDbEntity
  8
3
370
    50
100
AcDbCircle
 10
-244.679685
 20
43.409698
 30
0.0
 40
99.5
100
AcDbArc
 50
168.471477
 51
187.637519
  0
ARC
  5
87
100
AcDbEntity
  8
3
370
    50
100
AcDbCircle
 10
-334.333702
 20
61.696499
 30
0.0
 40
8.0
100
AcDbArc
 50
105.117347
 51
168.471477
  0
ARC
  5
88
100
AcDbEntity
  8
3
370
    50
100
AcDbCircle
 10
-335.898483
 20
67.488861
 30
0.0
 40
2.0
100
AcDbArc
 50
0.0
 51
105.117347
  0
ARC
  5
89
100
AcDbEntity
  8
3
370
    50
100
AcDbCircle
 10
-304.463264
 20
61.696499
 30
0.0
 40
8.0
100
AcDbArc
 50
11.528523
 51
74.882653
  0
ARC
  5
8A
100
AcDbEntity
  8
3
370
    50
100
AcDbCircle
 10
-302.898483
 20
67.488861
 30
0.0
 40
2.0
100
AcDbArc
 50
74.882653
 51
180.0
  0
ARC
  5
8B
100
AcDbEntity
  8
3
370
    50
100
AcDbCircle
 10
-335.367963
 20
31.248851
 30
0.0
 40
8.0
100
AcDbArc
 50
187.637519
 51
252.175397
  0
ARC
  5
8C
100
AcDbEntity
  8
3
370
    50
100
AcDbCircle
 10
-336.898483
 20
26.488861
 30
0.0
 40
3.0
100
AcDbArc
 50
252.175397
 51
360.0
  0
ARC
  5
8D
100
AcDbEntity
  8
3
370
    50
100
AcDbCircle
 10
-301.898483
 20
26.488861
 30
0.0
 40
3.0
100
AcDbArc
 50
180.0
 51
287.824603
  0
ARC
  5
8E
100
AcDbEntity
  8
3
370
    50
100
AcDbCircle
 10
-303.429004
 20
31.248851
 30
0.0
 40
8.0
100
AcDbArc
 50
287.824603
 51
352.362481
  0
POINT
  5
8F
100
AcDbEntity
  8
3
370
    50
100
AcDbPoint
 10
-319.398483
 20
72.988861
 30
0.0
  0
LINE
  5
90
100
AcDbEntity
  8
3
370
    50
100
AcDbLine
 10
-196.898483
 20
20.738861
 30
0.0
 11
-196.898483
 21
21.988861
 31
0.0
  0
LINE
  5
91
100
AcDbEntity
  8
3
370
    50
100
AcDbLine
 10
-196.398483
 20
21.988861
 30
0.0
 11
-172.398483
 21
21.988861
 31
0.0
  0
ARC
  5
92
100
AcDbEntity
  8
3
370
    50
100
AcDbCircle
 10
-109.679646
 20
43.409698
 30
0.0
 40
100.0
100
AcDbArc
 50
168.537652
 51
188.388164
  0
ARC
  5
93
100
AcDbEntity
  8
3
370
    50
100
AcDbCircle
 10
-109.679685
 20
43.409698
 30
0.0
 40
99.5
100
AcDbArc
 50
168.471477
 51
187.637519
  0
ARC
  5
94
100
AcDbEntity
  8
3
370
    50
100
AcDbCircle
 10
-198.864697
 20
61.493575
 30
0.0
 40
9.0
100
AcDbArc
 50
96.34007
 51
168.537652
  0
ARC
  5
95
100
AcDbEntity
  8
3
370
    50
100
AcDbCircle
 10
-199.333702
 20
61.696499
 30
0.0
 40
8.0
100
AcDbArc
 50
105.117347
 51
168.471477
  0
ARC
  5
96
100
AcDbEntity
  8
3
370
    50
100
AcDbCircle
 10
-200.898483
 20
67.488861
 30
0.0
 40
2.0
100
AcDbArc
 50
0.0
 51
105.117347
  0
LINE
  5
97
100
AcDbEntity
  8
3
370
    50
100
AcDbLine
 10
-198.898483
 20
67.488861
 30
0.0
 11
-198.898483
 21
26.488861
 31
0.0
  0
ARC
  5
98
100
AcDbEntity
  8
3
370
    50
100
AcDbCircle
 10
-201.898483
 20
26.488861
 30
0.0
 40
3.0
100
AcDbArc
 50
252.175397
 51
360.0
  0
ARC
  5
99
100
AcDbEntity
  8
3
370
    50
100
AcDbCircle
 10
-201.898483
 20
26.488861
 30
0.0
 40
3.0
100
AcDbArc
 50
252.175397
 51
360.0
  0
ARC
  5
9A
100
AcDbEntity
  8
3
370
    50
100
AcDbCircle
 10
-200.367963
 20
31.248851
 30
0.0
 40
8.0
100
AcDbArc
 50
187.637519
 51
252.175397
  0
ARC
  5
9B
100
AcDbEntity
  8
3
370
    50
100
AcDbCircle
 10
-200.695475
 20
29.988861
 30
0.0
 40
8.0
100
AcDbArc
 50
188.388164
 51
270.0
  0
LINE
  5
9C
100
AcDbEntity
  8
3
370
    50
100
AcDbLine
 10
-168.101414
 20
21.988861
 30
0.0
 11
-200.695475
 21
21.988861
 31
0.0
  0
ARC
  5
9D
100
AcDbEntity
  8
3
370
    50
100
AcDbCircle
 10
-168.101414
 20
29.988861
 30
0.0
 40
8.0
100
AcDbArc
 50
270.0
 51
351.611836
  0
ARC
  5
9E
100
AcDbEntity
  8
3
370
    50
100
AcDbCircle
 10
-259.117243
 20
43.409698
 30
0.0
 40
100.0
100
AcDbArc
 50
351.611836
 51
11.462348
  0
ARC
  5
9F
100
AcDbEntity
  8
3
370
    50
100
AcDbCircle
 10
-169.932192
 20
61.493575
 30
0.0
 40
9.0
100
AcDbArc
 50
11.462348
 51
83.65993
  0
ARC
  5
A0
100
AcDbEntity
  8
3
370
    50
100
AcDbCircle
 10
-169.932192
 20
61.493575
 30
0.0
 40
9.0
100
AcDbArc
 50
11.462348
 51
83.65993
  0
ARC
  5
A1
100
AcDbEntity
  8
3
370
    50
100
AcDbCircle
 10
-184.398444
 20
-68.705225
 30
0.0
 40
140.0
100
AcDbArc
 50
83.65993
 51
86.211626
  0
LINE
  5
A2
100
AcDbEntity
  8
3
370
    50
100
AcDbLine
 10
-175.148444
 20
70.988861
 30
0.0
 11
-184.398483
 21
70.988861
 31
0.0
  0
LINE
  5
A3
100
AcDbEntity
  8
3
370
    50
100
AcDbLine
 10
-184.398483
 20
70.988861
 30
0.0
 11
-193.648444
 21
70.988861
 31
0.0
  0
ARC
  5
A4
100
AcDbEntity
  8
3
370
    50
100
AcDbCircle
 10
-184.398444
 20
-68.705225
 30
0.0
 40
140.0
100
AcDbArc
 50
93.788374
 51
96.34007
  0
ARC
  5
A5
100
AcDbEntity
  8
3
370
    50
100
AcDbCircle
 10
-184.398444
 20
-68.705225
 30
0.0
 40
140.0
100
AcDbArc
 50
93.788374
 51
96.34007
  0
ARC
  5
A6
100
AcDbEntity
  8
3
370
    50
100
AcDbCircle
 10
-184.398444
 20
-7.011139
 30
0.0
 40
80.0
100
AcDbArc
 50
84.370157
 51
95.629843
  0
ARC
  5
A7
100
AcDbEntity
  8
3
370
    50
100
AcDbCircle
 10
-192.148444
 20
71.607799
 30
0.0
 40
1.0
100
AcDbArc
 50
95.629843
 51
180.0
  0
ARC
  5
A8
100
AcDbEntity
  8
3
370
    50
100
AcDbCircle
 10
-176.648444
 20
71.607799
 30
0.0
 40
1.0
100
AcDbArc
 50
0.0
 51
84.370157
  0
ARC
  5
A9
100
AcDbEntity
  8
3
370
    50
100
AcDbCircle
 10
-184.398483
 20
60.568941
 30
0.0
 40
8.91992
100
AcDbArc
 50
9.155483
 51
170.844517
  0
ARC
  5
AA
100
AcDbEntity
  8
3
370
    50
100
AcDbCircle
 10
-74.733543
 20
42.894526
 30
0.0
 40
120.0
100
AcDbArc
 50
170.844517
 51
184.940428
  0
ARC
  5
AB
100
AcDbEntity
  8
3
370
    50
100
AcDbCircle
 10
-294.063424
 20
42.894526
 30
0.0
 40
120.0
100
AcDbArc
 50
355.059572
 51
9.155483
  0
ARC
  5
AC
100
AcDbEntity
  8
3
370
    50
100
AcDbCircle
 10
-184.398483
 20
33.414971
 30
0.0
 40
9.926111
100
AcDbArc
 50
184.940428
 51
355.059572
  0
LINE
  5
AD
100
AcDbEntity
  8
3
370
    50
100
AcDbLine
 10
-169.898483
 20
67.488861
 30
0.0
 11
-169.898483
 21
26.488861
 31
0.0
  0
ARC
  5
AE
100
AcDbEntity
  8
3
370
    50
100
AcDbCircle
 10
-167.898483
 20
67.488861
 30
0.0
 40
2.0
100
AcDbArc
 50
74.882653
 51
180.0
  0
ARC
  5
AF
100
AcDbEntity
  8
3
370
    50
100
AcDbCircle
 10
-169.463264
 20
61.696499
 30
0.0
 40
8.0
100
AcDbArc
 50
11.528523
 51
74.882653
  0
ARC
  5
B0
100
AcDbEntity
  8
3
370
    50
100
AcDbCircle
 10
-259.117282
 20
43.409698
 30
0.0
 40
99.5
100
AcDbArc
 50
352.362481
 51
11.528523
  0
ARC
  5
B1
100
AcDbEntity
  8
3
370
    50
100
AcDbCircle
 10
-168.429004
 20
31.248851
 30
0.0
 40
8.0
100
AcDbArc
 50
287.824603
 51
352.362481
  0
ARC
  5
B2
100
AcDbEntity
  8
3
370
    50
100
AcDbCircle
 10
-168.429004
 20
31.248851
 30
0.0
 40
8.0
100
AcDbArc
 50
287.824603
 51
352.362481
  0
ARC
  5
B3
100
AcDbEntity
  8
3
370
    50
100
AcDbCircle
 10
-166.898483
 20
26.488861
 30
0.0
 40
3.0
100
AcDbArc
 50
180.0
 51
287.824603
  0
LINE
  5
B4
100
AcDbEntity
  8
3
370
    50
100
AcDbLine
 10
-184.398483
 20
70.988861
 30
0.0
 11
-193.648444
 21
70.988861
 31
0.0
  0
LINE
  5
B5
100
AcDbEntity
  8
3
370
    50
100
AcDbLine
 10
-175.648444
 20
71.607799
 30
0.0
 11
-175.648444
 21
70.988861
 31
0.0
  0
ARC
  5
B6
100
AcDbEntity
  8
3
370
    50
100
AcDbCircle
 10
-184.398444
 20
-68.705225
 30
0.0
 40
140.0
100
AcDbArc
 50
83.65993
 51
86.211626
  0
ARC
  5
B7
100
AcDbEntity
  8
3
370
    50
100
AcDbCircle
 10
-192.148444
 20
71.607799
 30
0.0
 40
1.0
100
AcDbArc
 50
95.629843
 51
180.0
  0
ARC
  5
B8
100
AcDbEntity
  8
3
370
    50
100
AcDbCircle
 10
-192.148444
 20
71.607799
 30
0.0
 40
1.0
100
AcDbArc
 50
95.629843
 51
180.0
  0
LINE
  5
B9
100
AcDbEntity
  8
3
370
    50
100
AcDbLine
 10
-193.148444
 20
71.607799
 30
0.0
 11
-193.148444
 21
70.988861
 31
0.0
  0
POINT
  5
BA
100
AcDbEntity
  8
3
370
    50
100
AcDbPoint
 10
-184.398483
 20
72.988861
 30
0.0
  0
LINE
  5
BB
100
AcDbEntity
  8
3
370
    50
100
AcDbLine
 10
-171.898483
 20
3.459424
 30
0.0
 11
-147.629202
 21
-20.809858
 31
0.0
  0
LINE
  5
BC
100
AcDbEntity
  8
3
370
    50
100
AcDbLine
 10
-185.012198
 20
-17.367987
 30
0.0
 11
-164.599765
 21
-37.780421
 31
0.0
  0
ARC
  5
BD
100
AcDbEntity
  8
3
370
    50
100
AcDbCircle
 10
-156.114483
 20
-29.295139
 30
0.0
 40
27.0
100
AcDbArc
 50
161.3878
 51
108.6122
  0
POINT
  5
BE
100
AcDbEntity
  8
3
370
    50
100
AcDbPoint
 10
-156.114483
 20
-29.295139
 30
0.0
  0
ARC
  5
BF
100
AcDbEntity
  8
3
370
    50
100
AcDbCircle
 10
-156.114483
 20
-29.295139
 30
0.0
 40
12.0
100
AcDbArc
 50
225.0
 51
45.0
  0
ARC
  5
C0
100
AcDbEntity
  8
3
370
    50
100
AcDbCircle
 10
-156.114483
 20
-29.295139
 30
0.0
 40
14.0
100
AcDbArc
 50
193.997281
 51
76.002719
  0
LINE
  5
C1
100
AcDbEntity
  8
3
370
    50
100
AcDbLine
 10
-331.898483
 20
3.459424
 30
0.0
 11
-356.167765
 21
-20.809858
 31
0.0
  0
LINE
  5
C2
100
AcDbEntity
  8
3
370
    50
100
AcDbLine
 10
-318.784769
 20
-17.367987
 30
0.0
 11
-339.197202
 21
-37.780421
 31
0.0
  0
ARC
  5
C3
100
AcDbEntity
  8
3
370
    50
100
AcDbCircle
 10
-347.682483
 20
-29.295139
 30
0.0
 40
27.0
100
AcDbArc
 50
71.3878
 51
18.6122
  0
POINT
  5
C4
100
AcDbEntity
  8
3
370
    50
100
AcDbPoint
 10
-347.682483
 20
-29.295139
 30
0.0
  0
ARC
  5
C5
100
AcDbEntity
  8
3
370
    50
100
AcDbCircle
 10
-347.682483
 20
-29.295139
 30
0.0
 40
12.0
100
AcDbArc
 50
135.0
 51
315.0
  0
ARC
  5
C6
100
AcDbEntity
  8
3
370
    50
100
AcDbCircle
 10
-347.682483
 20
-29.295139
 30
0.0
 40
14.0
100
AcDbArc
 50
103.997281
 51
346.002719
  0
ARC
  5
C7
100
AcDbEntity
  8
3
370
    50
100
AcDbCircle
 10
-251.898148
 20
58.988861
 30
0.0
 40
7.9
100
AcDbArc
 50
0.0
 51
180.0
  0
LINE
  5
C8
100
AcDbEntity
  8
3
370
    50
100
AcDbLine
 10
-243.998148
 20
30.988861
 30
0.0
 11
-243.998148
 21
58.988861
 31
0.0
  0
LINE
  5
C9
100
AcDbEntity
  8
3
370
    50
100
AcDbLine
 10
-259.798148
 20
30.988861
 30
0.0
 11
-259.798148
 21
58.988861
 31
0.0
  0
LINE
  5
CA
100
AcDbEntity
  8
3
370
    50
100
AcDbLine
 10
-259.798148
 20
30.988861
 30
0.0
 11
-243.998148
 21
30.988861
 31
0.0
  0
ARC
  5
CB
100
AcDbEntity
  8
3
370
    50
100
AcDbCircle
 10
-247.120647
 20
28.488861
 30
0.0
 40
4.0
100
AcDbArc
 50
321.317813
 51
38.682187
  0
ARC
  5
CC
100
AcDbEntity
  8
3
370
    50
100
AcDbCircle
 10
-256.675649
 20
28.488861
 30
0.0
 40
4.0
100
AcDbArc
 50
141.317813
 51
218.682187
  0
LINE
  5
CD
100
AcDbEntity
  8
3
370
    50
100
AcDbLine
 10
-259.798148
 20
25.988861
 30
0.0
 11
-243.998148
 21
25.988861
 31
0.0
  0
ARC
  5
CE
100
AcDbEntity
  8
3
370
    50
100
AcDbCircle
 10
-251.898148
 20
28.639236
 30
0.0
 40
4.75
100
AcDbArc
 50
213.915786
 51
326.084214
  0
LINE
  5
CF
100
AcDbEntity
  8
3
370
    50
100
AcDbLine
 10
-265.666364
 20
35.139554
 30
0.0
 11
-259.798148
 21
35.139554
 31
0.0
  0
LINE
  5
D0
100
AcDbEntity
  8
3
370
    50
100
AcDbLine
 10
-243.998148
 20
35.139554
 30
0.0
 11
-238.129353
 21
35.139554
 31
0.0
  0
ELLIPSE
  5
D1
100
AcDbEntity
  8
3
370
    50
100
AcDbEllipse
 10
-239.023148
 20
28.639236
 30
0.0
 11
0.0
 21
-4.7429389999999998
 31
0.0
210
0.0
220
0.0
230
1.0
 40
0.463545
 41
0.0
 42
6.2831849999999996
  0
ARC
  5
D2
100
AcDbEntity
  8
3
370
    50
100
AcDbCircle
 10
-251.647859
 20
28.639554
 30
0.0
 40
15.0
100
AcDbArc
 50
334.320711
 51
25.679289
  0
LINE
  5
D3
100
AcDbEntity
  8
3
370
    50
100
AcDbLine
 10
-238.129353
 20
22.139554
 30
0.0
 11
-243.998148
 21
22.139554
 31
0.0
  0
LINE
  5
D4
100
AcDbEntity
  8
3
370
    50
100
AcDbLine
 10
-265.666364
 20
22.139554
 30
0.0
 11
-243.308716
 21
22.139554
 31
0.0
  0
ELLIPSE
  5
D5
100
AcDbEntity
  8
3
370
    50
100
AcDbEllipse
 10
-264.773148
 20
28.639236
 30
0.0
 11
0.0
 21
4.7429389999999998
 31
0.0
210
0.0
220
0.0
230
1.0
 40
0.463545
 41
0.0
 42
6.2831849999999996
  0
ARC
  5
D6
100
AcDbEntity
  8
3
370
    50
100
AcDbCircle
 10
-252.147859
 20
28.639554
 30
0.0
 40
15.0
100
AcDbArc
 50
154.320711
 51
205.679289
  0
LINE
  5
D7
100
AcDbEntity
  8
3
370
    50
100
AcDbLine
 10
136.101517
 20
21.988861
 30
0.0
 11
160.101517
 21
21.988861
 31
0.0
  0
ARC
  5
D8
100
AcDbEntity
  8
3
370
    50
100
AcDbCircle
 10
222.820354
 20
43.409698
 30
0.0
 40
100.0
100
AcDbArc
 50
168.537652
 51
188.388164
  0
ARC
  5
D9
100
AcDbEntity
  8
3
370
    50
100
AcDbCircle
 10
222.820315
 20
43.409698
 30
0.0
 40
99.5
100
AcDbArc
 50
168.471477
 51
187.637519
  0
ARC
  5
DA
100
AcDbEntity
  8
3
370
    50
100
AcDbCircle
 10
133.635303
 20
61.493575
 30
0.0
 40
9.0
100
AcDbArc
 50
96.34007
 51
168.537652
  0
ARC
  5
DB
100
AcDbEntity
  8
3
370
    50
100
AcDbCircle
 10
133.166298
 20
61.696499
 30
0.0
 40
8.0
100
AcDbArc
 50
105.117347
 51
168.471477
  0
ARC
  5
DC
100
AcDbEntity
  8
3
370
    50
100
AcDbCircle
 10
131.601517
 20
67.488861
 30
0.0
 40
2.0
100
AcDbArc
 50
0.0
 51
105.117347
  0
LINE
  5
DD
100
AcDbEntity
  8
3
370
    50
100
AcDbLine
 10
133.601517
 20
67.488861
 30
0.0
 11
133.601517
 21
26.488861
 31
0.0
  0
ARC
  5
DE
100
AcDbEntity
  8
3
370
    50
100
AcDbCircle
 10
130.601517
 20
26.488861
 30
0.0
 40
3.0
100
AcDbArc
 50
252.175397
 51
360.0
  0
ARC
  5
DF
100
AcDbEntity
  8
3
370
    50
100
AcDbCircle
 10
130.601517
 20
26.488861
 30
0.0
 40
3.0
100
AcDbArc
 50
252.175397
 51
360.0
  0
ARC
  5
E0
100
AcDbEntity
  8
3
370
    50
100
AcDbCircle
 10
132.132037
 20
31.248851
 30
0.0
 40
8.0
100
AcDbArc
 50
187.637519
 51
252.175397
  0
ARC
  5
E1
100
AcDbEntity
  8
3
370
    50
100
AcDbCircle
 10
131.804525
 20
29.988861
 30
0.0
 40
8.0
100
AcDbArc
 50
188.388164
 51
270.0
  0
LINE
  5
E2
100
AcDbEntity
  8
3
370
    50
100
AcDbLine
 10
164.398586
 20
21.988861
 30
0.0
 11
131.804525
 21
21.988861
 31
0.0
  0
ARC
  5
E3
100
AcDbEntity
  8
3
370
    50
100
AcDbCircle
 10
164.398586
 20
29.988861
 30
0.0
 40
8.0
100
AcDbArc
 50
270.0
 51
351.611836
  0
ARC
  5
E4
100
AcDbEntity
  8
3
370
    50
100
AcDbCircle
 10
73.382757
 20
43.409698
 30
0.0
 40
100.0
100
AcDbArc
 50
351.611836
 51
11.462348
  0
ARC
  5
E5
100
AcDbEntity
  8
3
370
    50
100
AcDbCircle
 10
162.567808
 20
61.493575
 30
0.0
 40
9.0
100
AcDbArc
 50
11.462348
 51
83.65993
  0
ARC
  5
E6
100
AcDbEntity
  8
3
370
    50
100
AcDbCircle
 10
162.567808
 20
61.493575
 30
0.0
 40
9.0
100
AcDbArc
 50
11.462348
 51
83.65993
  0
ARC
  5
E7
100
AcDbEntity
  8
3
370
    50
100
AcDbCircle
 10
148.101556
 20
-68.705225
 30
0.0
 40
140.0
100
AcDbArc
 50
83.65993
 51
86.211626
  0
LINE
  5
E8
100
AcDbEntity
  8
3
370
    50
100
AcDbLine
 10
157.351556
 20
70.988861
 30
0.0
 11
148.101517
 21
70.988861
 31
0.0
  0
LINE
  5
E9
100
AcDbEntity
  8
3
370
    50
100
AcDbLine
 10
148.101517
 20
70.988861
 30
0.0
 11
138.851556
 21
70.988861
 31
0.0
  0
ARC
  5
EA
100
AcDbEntity
  8
3
370
    50
100
AcDbCircle
 10
148.101556
 20
-68.705225
 30
0.0
 40
140.0
100
AcDbArc
 50
93.788374
 51
96.34007
  0
ARC
  5
EB
100
AcDbEntity
  8
3
370
    50
100
AcDbCircle
 10
148.101556
 20
-68.705225
 30
0.0
 40
140.0
100
AcDbArc
 50
93.788374
 51
96.34007
  0
ARC
  5
EC
100
AcDbEntity
  8
3
370
    50
100
AcDbCircle
 10
148.101556
 20
-7.011139
 30
0.0
 40
80.0
100
AcDbArc
 50
84.370157
 51
95.629843
  0
ARC
  5
ED
100
AcDbEntity
  8
3
370
    50
100
AcDbCircle
 10
140.351556
 20
71.607799
 30
0.0
 40
1.0
100
AcDbArc
 50
95.629843
 51
180.0
  0
ARC
  5
EE
100
AcDbEntity
  8
3
370
    50
100
AcDbCircle
 10
155.851556
 20
71.607799
 30
0.0
 40
1.0
100
AcDbArc
 50
0.0
 51
84.370157
  0
ARC
  5
EF
100
AcDbEntity
  8
3
370
    50
100
AcDbCircle
 10
148.101517
 20
60.568941
 30
0.0
 40
8.91992
100
AcDbArc
 50
9.155483
 51
170.844517
  0
ARC
  5
F0
100
AcDbEntity
  8
3
370
    50
100
AcDbCircle
 10
257.766457
 20
42.894526
 30
0.0
 40
120.0
100
AcDbArc
 50
170.844517
 51
184.940428
  0
ARC
  5
F1
100
AcDbEntity
  8
3
370
    50
100
AcDbCircle
 10
38.436576
 20
42.894526
 30
0.0
 40
120.0
100
AcDbArc
 50
355.059572
 51
9.155483
  0
ARC
  5
F2
100
AcDbEntity
  8
3
370
    50
100
AcDbCircle
 10
148.101517
 20
33.414971
 30
0.0
 40
9.926111
100
AcDbArc
 50
184.940428
 51
355.059572
  0
LINE
  5
F3
100
AcDbEntity
  8
3
370
    50
100
AcDbLine
 10
162.601517
 20
67.488861
 30
0.0
 11
162.601517
 21
26.488861
 31
0.0
  0
ARC
  5
F4
100
AcDbEntity
  8
3
370
    50
100
AcDbCircle
 10
164.601517
 20
67.488861
 30
0.0
 40
2.0
100
AcDbArc
 50
74.882653
 51
180.0
  0
ARC
  5
F5
100
AcDbEntity
  8
3
370
    50
100
AcDbCircle
 10
163.036736
 20
61.696499
 30
0.0
 40
8.0
100
AcDbArc
 50
11.528523
 51
74.882653
  0
ARC
  5
F6
100
AcDbEntity
  8
3
370
    50
100
AcDbCircle
 10
73.382718
 20
43.409698
 30
0.0
 40
99.5
100
AcDbArc
 50
352.362481
 51
11.528523
  0
ARC
  5
F7
100
AcDbEntity
  8
3
370
    50
100
AcDbCircle
 10
164.070996
 20
31.248851
 30
0.0
 40
8.0
100
AcDbArc
 50
287.824603
 51
352.362481
  0
ARC
  5
F8
100
AcDbEntity
  8
3
370
    50
100
AcDbCircle
 10
164.070996
 20
31.248851
 30
0.0
 40
8.0
100
AcDbArc
 50
287.824603
 51
352.362481
  0
ARC
  5
F9
100
AcDbEntity
  8
3
370
    50
100
AcDbCircle
 10
165.601517
 20
26.488861
 30
0.0
 40
3.0
100
AcDbArc
 50
180.0
 51
287.824603
  0
LINE
  5
FA
100
AcDbEntity
  8
3
370
    50
100
AcDbLine
 10
148.101517
 20
70.988861
 30
0.0
 11
138.851556
 21
70.988861
 31
0.0
  0
LINE
  5
FB
100
AcDbEntity
  8
3
370
    50
100
AcDbLine
 10
156.851556
 20
71.607799
 30
0.0
 11
156.851556
 21
70.988861
 31
0.0
  0
ARC
  5
FC
100
AcDbEntity
  8
3
370
    50
100
AcDbCircle
 10
148.101556
 20
-68.705225
 30
0.0
 40
140.0
100
AcDbArc
 50
83.65993
 51
86.211626
  0
ARC
  5
FD
100
AcDbEntity
  8
3
370
    50
100
AcDbCircle
 10
140.351556
 20
71.607799
 30
0.0
 40
1.0
100
AcDbArc
 50
95.629843
 51
180.0
  0
ARC
  5
FE
100
AcDbEntity
  8
3
370
    50
100
AcDbCircle
 10
140.351556
 20
71.607799
 30
0.0
 40
1.0
100
AcDbArc
 50
95.629843
 51
180.0
  0
LINE
  5
FF
100
AcDbEntity
  8
3
370
    50
100
AcDbLine
 10
139.351556
 20
71.607799
 30
0.0
 11
139.351556
 21
70.988861
 31
0.0
  0
POINT
  5
100
100
AcDbEntity
  8
3
370
    50
100
AcDbPoint
 10
148.101517
 20
72.988861
 30
0.0
  0
LINE
  5
101
100
AcDbEntity
  8
3
370
    50
100
AcDbLine
 10
136.101517
 20
9.583671
 30
0.0
 11
136.101517
 21
21.988861
 31
0.0
  0
LINE
  5
102
100
AcDbEntity
  8
3
370
    50
100
AcDbLine
 10
160.101517
 20
16.926115
 30
0.0
 11
160.101517
 21
21.988861
 31
0.0
  0
ARC
  5
103
100
AcDbEntity
  8
3
370
    50
100
AcDbCircle
 10
148.101517
 20
-1.011139
 30
0.0
 40
12.5
100
AcDbArc
 50
174.596099
 51
292.619865
  0
ARC
  5
104
100
AcDbEntity
  8
3
370
    50
100
AcDbCircle
 10
36.101517
 20
9.583671
 30
0.0
 40
100.0
100
AcDbArc
 50
354.596099
 51
360.0
  0
LINE
  5
105
100
AcDbEntity
  8
3
370
    50
100
AcDbLine
 10
163.101517
 20
8.988861
 30
0.0
 11
167.601517
 21
8.988861
 31
0.0
  0
LINE
  5
106
100
AcDbEntity
  8
3
370
    50
100
AcDbLine
 10
160.601517
 20
-11.011139
 30
0.0
 11
167.601517
 21
-11.011139
 31
0.0
  0
ARC
  5
107
100
AcDbEntity
  8
3
370
    50
100
AcDbCircle
 10
172.101517
 20
16.926115
 30
0.0
 40
12.0
100
AcDbArc
 50
180.0
 51
221.409622
  0
ARC
  5
108
100
AcDbEntity
  8
3
370
    50
100
AcDbCircle
 10
160.601517
 20
-31.011139
 30
0.0
 40
20.0
100
AcDbArc
 50
90.0
 51
112.619865
  0
LINE
  5
109
100
AcDbEntity
  8
3
370
    50
100
AcDbLine
 10
167.601517
 20
-15.537808
 30
0.0
 11
167.601517
 21
13.515529
 31
0.0
  0
LINE
  5
10A
100
AcDbEntity
  8
3
370
    50
100
AcDbLine
 10
180.602405
 20
13.253799
 30
0.0
 11
180.602405
 21
-15.276078
 31
0.0
  0
ARC
  5
10B
100
AcDbEntity
  8
3
370
    50
100
AcDbCircle
 10
173.852405
 20
0.988503
 30
0.0
 40
14.0
100
AcDbArc
 50
61.174551
 51
116.518838
  0
LINE
  5
10C
100
AcDbEntity
  8
3
370
    50
100
AcDbLine
 10
213.101517
 20
-17.115482
 30
0.0
 11
213.101517
 21
-41.795264
 31
0.0
  0
LINE
  5
10D
100
AcDbEntity
  8
3
370
    50
100
AcDbLine
 10
237.101517
 20
-19.695139
 30
0.0
 11
237.101517
 21
-38.895139
 31
0.0
  0
LINE
  5
10E
100
AcDbEntity
  8
3
370
    50
100
AcDbLine
 10
223.101517
 20
-6.295139
 30
0.0
 11
221.116131
 21
-6.295139
 31
0.0
  0
LINE
  5
10F
100
AcDbEntity
  8
3
370
    50
100
AcDbLine
 10
223.101517
 20
-6.295139
 30
0.0
 11
223.101517
 21
-52.295139
 31
0.0
  0
LINE
  5
110
100
AcDbEntity
  8
3
370
    50
100
AcDbLine
 10
220.302401
 20
-51.876382
 30
0.0
 11
213.287787
 21
-42.056039
 31
0.0
  0
LINE
  5
111
100
AcDbEntity
  8
3
370
    50
100
AcDbLine
 10
220.302401
 20
-6.713896
 30
0.0
 11
213.287787
 21
-16.53424
 31
0.0
  0
ARC
  5
112
100
AcDbEntity
  8
3
370
    50
100
AcDbCircle
 10
214.101517
 20
-41.474796
 30
0.0
 40
1.0
100
AcDbArc
 50
180.0
 51
215.538
  0
ARC
  5
113
100
AcDbEntity
  8
3
370
    50
100
AcDbCircle
 10
214.101517
 20
-17.115482
 30
0.0
 40
1.0
100
AcDbArc
 50
144.462
 51
180.0
  0
ARC
  5
114
100
AcDbEntity
  8
3
370
    50
100
AcDbCircle
 10
221.116131
 20
-51.295139
 30
0.0
 40
1.0
100
AcDbArc
 50
215.538
 51
270.0
  0
ARC
  5
115
100
AcDbEntity
  8
3
370
    50
100
AcDbCircle
 10
221.116131
 20
-7.295139
 30
0.0
 40
1.0
100
AcDbArc
 50
90.0
 51
144.462
  0
LINE
  5
116
100
AcDbEntity
  8
3
370
    50
100
AcDbLine
 10
220.601517
 20
-6.437717
 30
0.0
 11
220.601517
 21
-52.152561
 31
0.0
  0
LINE
  5
117
100
AcDbEntity
  8
3
370
    50
100
AcDbLine
 10
237.101517
 20
-38.895139
 30
0.0
 11
223.101517
 21
-38.895139
 31
0.0
  0
LINE
  5
118
100
AcDbEntity
  8
3
370
    50
100
AcDbLine
 10
237.101517
 20
-19.695139
 30
0.0
 11
223.101517
 21
-19.695139
 31
0.0
  0
LINE
  5
119
100
AcDbEntity
  8
3
370
    50
100
AcDbLine
 10
237.101517
 20
-38.895139
 30
0.0
 11
236.201517
 21
-39.795139
 31
0.0
  0
LINE
  5
11A
100
AcDbEntity
  8
3
370
    50
100
AcDbLine
 10
237.101517
 20
-19.695139
 30
0.0
 11
236.201517
 21
-18.795139
 31
0.0
  0
LINE
  5
11B
100
AcDbEntity
  8
3
370
    50
100
AcDbLine
 10
236.201517
 20
-18.795139
 30
0.0
 11
236.201517
 21
-39.795139
 31
0.0
  0
LINE
  5
11C
100
AcDbEntity
  8
3
370
    50
100
AcDbLine
 10
205.101517
 20
-18.795139
 30
0.0
 11
213.101517
 21
-18.795139
 31
0.0
  0
LINE
  5
11D
100
AcDbEntity
  8
3
370
    50
100
AcDbLine
 10
223.101517
 20
-18.795139
 30
0.0
 11
236.201517
 21
-18.795139
 31
0.0
  0
LINE
  5
11E
100
AcDbEntity
  8
3
370
    50
100
AcDbLine
 10
191.101517
 20
-39.795139
 30
0.0
 11
213.101517
 21
-39.795139
 31
0.0
  0
LINE
  5
11F
100
AcDbEntity
  8
3
370
    50
100
AcDbLine
 10
223.101517
 20
-39.795139
 30
0.0
 11
236.201517
 21
-39.795139
 31
0.0
  0
CIRCLE
  5
120
100
AcDbEntity
  8
3
370
    50
100
AcDbCircle
 10
173.852405
 20
-1.011497
 30
0.0
 40
4.75
  0
ELLIPSE
  5
121
100
AcDbEntity
  8
3
370
    50
100
AcDbEllipse
 10
173.852405
 20
12.863503
 30
0.0
 11
4.7429389999999998
 21
0.0
 31
0.0
210
0.0
220
0.0
230
1.0
 40
0.463545
 41
0.0
 42
6.2831849999999996
  0
ELLIPSE
  5
122
100
AcDbEntity
  8
3
370
    50
100
AcDbEllipse
 10
173.852405
 20
-14.885781
 30
0.0
 11
-4.7429389999999998
 21
0.0
 31
0.0
210
0.0
220
0.0
230
1.0
 40
0.463545
 41
0.0
 42
6.2831849999999996
  0
ARC
  5
123
100
AcDbEntity
  8
3
370
    50
100
AcDbCircle
 10
173.852405
 20
-3.010781
 30
0.0
 40
14.0
100
AcDbArc
 50
243.481162
 51
298.825449
  0
LINE
  5
124
100
AcDbEntity
  8
3
370
    50
100
AcDbLine
 10
191.101517
 20
-14.011163
 30
0.0
 11
180.602405
 21
-14.011163
 31
0.0
  0
LINE
  5
125
100
AcDbEntity
  8
3
370
    50
100
AcDbLine
 10
180.602405
 20
12.788861
 30
0.0
 11
205.101517
 21
12.788861
 31
0.0
  0
LINE
  5
126
100
AcDbEntity
  8
3
370
    50
100
AcDbLine
 10
205.101517
 20
12.788861
 30
0.0
 11
205.101517
 21
-18.795139
 31
0.0
  0
LINE
  5
127
100
AcDbEntity
  8
3
370
    50
100
AcDbLine
 10
191.101517
 20
-2.079445
 30
0.0
 11
191.101517
 21
-39.795139
 31
0.0
  0
LINE
  5
128
100
AcDbEntity
  8
3
370
    50
100
AcDbLine
 10
167.601517
 20
8.988861
 30
0.0
 11
165.101517
 21
8.988861
 31
0.0
  0
LINE
  5
129
100
AcDbEntity
  8
3
370
    50
100
AcDbLine
 10
167.601517
 20
-11.011139
 30
0.0
 11
165.101517
 21
-11.011139
 31
0.0
  0
LINE
  5
12A
100
AcDbEntity
  8
3
370
    50
100
AcDbLine
 10
221.116131
 20
-52.295139
 30
0.0
 11
223.101517
 21
-52.295139
 31
0.0
  0
POINT
  5
12B
100
AcDbEntity
  8
3
370
    50
100
AcDbPoint
 10
173.852405
 20
-1.011497
 30
0.0
  0
LINE
  5
12C
100
AcDbEntity
  8
3
370
    25
100
AcDbLine
 10
172.852405
 20
-1.011497
 30
0.0
 11
-66.413671
 21
-1.011497
 31
0.0
  0
LINE
  5
12D
100
AcDbEntity
  8
3
370
    25
100
AcDbLine
 10
-21.898058
 20
26.988861
 30
0.0
 11
-21.898058
 21
111.469978
 31
0.0
  0
LINE
  5
12E
100
AcDbEntity
  8
3
370
    25
100
AcDbLine
 10
-21.898058
 20
109.469978
 30
0.0
 11
-18.034354
 21
108.434702
 31
0.0
  0
LINE
  5
12F
100
AcDbEntity
  8
3
370
    25
100
AcDbLine
 10
-21.898058
 20
109.469978
 30
0.0
 11
-18.034354
 21
110.505254
 31
0.0
  0
LINE
  5
130
100
AcDbEntity
  8
3
370
    25
100
AcDbLine
 10
-18.034354
 20
108.434702
 30
0.0
 11
-18.034354
 21
110.505254
 31
0.0
  0
LINE
  5
131
100
AcDbEntity
  8
3
370
    25
100
AcDbLine
 10
-21.898058
 20
109.469978
 30
0.0
 11
148.101942
 21
109.469978
 31
0.0
  0
LINE
  5
132
100
AcDbEntity
  8
3
370
    25
100
AcDbLine
 10
148.101942
 20
109.469978
 30
0.0
 11
144.238239
 21
110.505254
 31
0.0
  0
LINE
  5
133
100
AcDbEntity
  8
3
370
    25
100
AcDbLine
 10
148.101942
 20
109.469978
 30
0.0
 11
144.238239
 21
108.434702
 31
0.0
  0
LINE
  5
134
100
AcDbEntity
  8
3
370
    25
100
AcDbLine
 10
144.238239
 20
110.505254
 30
0.0
 11
144.238239
 21
108.434702
 31
0.0
  0
LINE
  5
135
100
AcDbEntity
  8
3
370
    25
100
AcDbLine
 10
148.101942
 20
76.107376
 30
0.0
 11
148.101942
 21
111.469978
 31
0.0
  0
TEXT
  5
136
100
AcDbEntity
  8
3
370
    50
100
AcDbText
 10
17.54512
 20
114.303535
 30
0.0
 40
32.0
  1
１７０
 72
     5
 11
107.14512
 21
114.303535
 31
0.0
100
AcDbText
  0
ARC
  5
137
100
AcDbEntity
  8
3
370
    50
100
AcDbCircle
 10
8.001942
 20
29.088861
 30
0.0
 40
22.0
100
AcDbArc
 50
90.0
 51
175.045556
  0
ARC
  5
138
100
AcDbEntity
  8
3
370
    50
100
AcDbCircle
 10
8.001942
 20
29.088861
 30
0.0
 40
37.8
100
AcDbArc
 50
90.0
 51
177.118839
  0
ARC
  5
139
100
AcDbEntity
  8
3
370
    50
100
AcDbCircle
 10
-17.078765
 20
28.540183
 30
0.0
 40
4.0
100
AcDbArc
 50
320.369767
 51
37.74654
  0
ARC
  5
13A
100
AcDbEntity
  8
3
370
    50
100
AcDbCircle
 10
-26.675559
 20
28.488861
 30
0.0
 40
4.0
100
AcDbArc
 50
140.164052
 51
218.682187
  0
LINE
  5
13B
100
AcDbEntity
  8
3
370
    50
100
AcDbLine
 10
-29.750276
 20
30.988861
 30
0.0
 11
-13.915859
 21
30.988861
 31
0.0
  0
LINE
  5
13C
100
AcDbEntity
  8
3
370
    50
100
AcDbLine
 10
-29.798058
 20
25.988861
 30
0.0
 11
-13.998058
 21
25.988861
 31
0.0
  0
POINT
  5
13D
100
AcDbEntity
  8
3
370
    50
100
AcDbPoint
 10
-21.898058
 20
25.988861
 30
0.0
  0
LINE
  5
13E
100
AcDbEntity
  8
3
370
    25
100
AcDbLine
 10
-21.898058
 20
26.988861
 30
0.0
 11
-21.898058
 21
111.469978
 31
0.0
  0
LINE
  5
13F
100
AcDbEntity
  8
3
370
    25
100
AcDbLine
 10
73.929733
 20
-1.011139
 30
0.0
 11
-63.603002
 21
-1.011139
 31
0.0
  0
LINE
  5
140
100
AcDbEntity
  8
3
370
    25
100
AcDbLine
 10
-61.603002
 20
-1.011139
 30
0.0
 11
-60.567725
 21
2.852564
 31
0.0
  0
LINE
  5
141
100
AcDbEntity
  8
3
370
    25
100
AcDbLine
 10
-61.603002
 20
-1.011139
 30
0.0
 11
-62.638278
 21
2.852564
 31
0.0
  0
LINE
  5
142
100
AcDbEntity
  8
3
370
    25
100
AcDbLine
 10
-60.567725
 20
2.852564
 30
0.0
 11
-62.638278
 21
2.852564
 31
0.0
  0
LINE
  5
143
100
AcDbEntity
  8
3
370
    25
100
AcDbLine
 10
-61.603002
 20
-1.011139
 30
0.0
 11
-61.603002
 21
25.988861
 31
0.0
  0
LINE
  5
144
100
AcDbEntity
  8
3
370
    25
100
AcDbLine
 10
-61.603002
 20
25.988861
 30
0.0
 11
-62.638278
 21
22.125158
 31
0.0
  0
LINE
  5
145
100
AcDbEntity
  8
3
370
    25
100
AcDbLine
 10
-61.603002
 20
25.988861
 30
0.0
 11
-60.567725
 21
22.125158
 31
0.0
  0
LINE
  5
146
100
AcDbEntity
  8
3
370
    25
100
AcDbLine
 10
-62.638278
 20
22.125158
 30
0.0
 11
-60.567725
 21
22.125158
 31
0.0
  0
LINE
  5
147
100
AcDbEntity
  8
3
370
    25
100
AcDbLine
 10
-22.898058
 20
25.988861
 30
0.0
 11
-63.603002
 21
25.988861
 31
0.0
  0
TEXT
  5
148
100
AcDbEntity
  8
3
370
    50
100
AcDbText
 10
-68.408302
 20
-21.159535
 30
0.0
 40
32.0
  1
２７
 50
90.0
 72
     5
 11
-68.408302
 21
36.440465
 31
0.0
100
AcDbText
  0
LINE
  5
149
100
AcDbEntity
  8
3
370
    50
100
AcDbLine
 10
118.201942
 20
51.088861
 30
0.0
 11
8.001942
 21
51.088861
 31
0.0
  0
LINE
  5
14A
100
AcDbEntity
  8
3
370
    50
100
AcDbLine
 10
118.201942
 20
66.888861
 30
0.0
 11
8.001942
 21
66.888861
 31
0.0
  0
ARC
  5
14B
100
AcDbEntity
  8
3
370
    50
100
AcDbCircle
 10
8.001942
 20
29.088861
 30
0.0
 40
22.0
100
AcDbArc
 50
90.0
 51
175.045556
  0
ARC
  5
14C
100
AcDbEntity
  8
3
370
    50
100
AcDbCircle
 10
8.001942
 20
29.088861
 30
0.0
 40
37.8
100
AcDbArc
 50
90.0
 51
177.118839
  0
ARC
  5
14D
100
AcDbEntity
  8
3
370
    50
100
AcDbCircle
 10
118.201942
 20
29.088861
 30
0.0
 40
37.8
100
AcDbArc
 50
78.247277
 51
90.0
  0
ARC
  5
14E
100
AcDbEntity
  8
3
370
    50
100
AcDbCircle
 10
118.201942
 20
29.088861
 30
0.0
 40
22.0
100
AcDbArc
 50
77.202553
 51
90.0
  0
LINE
  5
14F
100
AcDbEntity
  8
3
370
    25
100
AcDbLine
 10
-319.398483
 20
73.988861
 30
0.0
 11
-319.398483
 21
108.683777
 31
0.0
  0
LINE
  5
150
100
AcDbEntity
  8
3
370
    25
100
AcDbLine
 10
-319.398483
 20
106.683777
 30
0.0
 11
-315.53478
 21
105.6485
 31
0.0
  0
LINE
  5
151
100
AcDbEntity
  8
3
370
    25
100
AcDbLine
 10
-319.398483
 20
106.683777
 30
0.0
 11
-315.53478
 21
107.719053
 31
0.0
  0
LINE
  5
152
100
AcDbEntity
  8
3
370
    25
100
AcDbLine
 10
-315.53478
 20
105.6485
 30
0.0
 11
-315.53478
 21
107.719053
 31
0.0
  0
LINE
  5
153
100
AcDbEntity
  8
3
370
    25
100
AcDbLine
 10
-319.398483
 20
106.683777
 30
0.0
 11
-184.398483
 21
106.683777
 31
0.0
  0
LINE
  5
154
100
AcDbEntity
  8
3
370
    25
100
AcDbLine
 10
-184.398483
 20
106.683777
 30
0.0
 11
-188.262187
 21
107.719053
 31
0.0
  0
LINE
  5
155
100
AcDbEntity
  8
3
370
    25
100
AcDbLine
 10
-184.398483
 20
106.683777
 30
0.0
 11
-188.262187
 21
105.6485
 31
0.0
  0
LINE
  5
156
100
AcDbEntity
  8
3
370
    25
100
AcDbLine
 10
-188.262187
 20
107.719053
 30
0.0
 11
-188.262187
 21
105.6485
 31
0.0
  0
LINE
  5
157
100
AcDbEntity
  8
3
370
    25
100
AcDbLine
 10
-184.398483
 20
73.988861
 30
0.0
 11
-184.398483
 21
108.683777
 31
0.0
  0
TEXT
  5
158
100
AcDbEntity
  8
3
370
    50
100
AcDbText
 10
-294.920853
 20
109.248962
 30
0.0
 40
32.0
  1
１３５
 72
     5
 11
-205.320853
 21
109.248962
 31
0.0
100
AcDbText
  0
LINE
  5
159
100
AcDbEntity
  8
3
370
    25
100
AcDbLine
 10
-347.682483
 20
-30.295139
 30
0.0
 11
-347.682483
 21
-120.065888
 31
0.0
  0
LINE
  5
15A
100
AcDbEntity
  8
3
370
    25
100
AcDbLine
 10
-347.682483
 20
-118.065888
 30
0.0
 11
-343.81878
 21
-119.101164
 31
0.0
  0
LINE
  5
15B
100
AcDbEntity
  8
3
370
    25
100
AcDbLine
 10
-347.682483
 20
-118.065888
 30
0.0
 11
-343.81878
 21
-117.030612
 31
0.0
  0
LINE
  5
15C
100
AcDbEntity
  8
3
370
    25
100
AcDbLine
 10
-343.81878
 20
-119.101164
 30
0.0
 11
-343.81878
 21
-117.030612
 31
0.0
  0
LINE
  5
15D
100
AcDbEntity
  8
3
370
    25
100
AcDbLine
 10
-347.682483
 20
-118.065888
 30
0.0
 11
-156.114483
 21
-118.065888
 31
0.0
  0
LINE
  5
15E
100
AcDbEntity
  8
3
370
    25
100
AcDbLine
 10
-156.114483
 20
-118.065888
 30
0.0
 11
-159.978187
 21
-117.030612
 31
0.0
  0
LINE
  5
15F
100
AcDbEntity
  8
3
370
    25
100
AcDbLine
 10
-156.114483
 20
-118.065888
 30
0.0
 11
-159.978187
 21
-119.101164
 31
0.0
  0
LINE
  5
160
100
AcDbEntity
  8
3
370
    25
100
AcDbLine
 10
-159.978187
 20
-117.030612
 30
0.0
 11
-159.978187
 21
-119.101164
 31
0.0
  0
LINE
  5
161
100
AcDbEntity
  8
3
370
    25
100
AcDbLine
 10
-156.114483
 20
-30.295139
 30
0.0
 11
-156.114483
 21
-120.065888
 31
0.0
  0
TEXT
  5
162
100
AcDbEntity
  8
3
370
    50
100
AcDbText
 10
-346.492935
 20
-114.164093
 30
0.0
 40
32.0
  1
ＭＡＸ２１０
 72
     5
 11
-160.892935
 21
-114.164093
 31
0.0
100
AcDbText
  0
LWPOLYLINE
  5
163
100
AcDbEntity
  8
3
370
    25
100
AcDbPolyline
 90
        3
 70
     0
 10
228.905355
 20
-39.35223
 10
254.522868
 20
-76.419262
 10
358.341085
 20
-76.419262
  0
LINE
  5
168
100
AcDbEntity
  8
3
370
    25
100
AcDbLine
 10
231.102046
 20
-42.530713
 30
0.0
 11
231.953718
 21
-41.942111
 31
0.0
  0
LINE
  5
169
100
AcDbEntity
  8
3
370
    25
100
AcDbLine
 10
231.953718
 20
-41.942111
 30
0.0
 11
228.905355
 21
-39.35223
 31
0.0
  0
LINE
  5
16A
100
AcDbEntity
  8
3
370
    25
100
AcDbLine
 10
228.905355
 20
-39.35223
 30
0.0
 11
230.250374
 21
-43.119314
 31
0.0
  0
LINE
  5
16B
100
AcDbEntity
  8
3
370
    25
100
AcDbLine
 10
230.250374
 20
-43.119314
 30
0.0
 11
231.102046
 21
-42.530713
 31
0.0
  0
TEXT
  5
16C
100
AcDbEntity
  8
3
370
    50
100
AcDbText
 10
253.848714
 20
-75.071387
 30
0.0
 40
21.333333
  1
ＰＪ１／２
 72
     5
 11
356.248714
 21
-75.071387
 31
0.0
100
AcDbText
  0
POINT
  5
16D
100
AcDbEntity
  8
3
370
    50
100
AcDbPoint
 10
-319.397812
 20
-1.011139
 30
0.0
  0
POINT
  5
16E
100
AcDbEntity
  8
3
370
    50
100
AcDbPoint
 10
-184.398483
 20
-1.011139
 30
0.0
  0
ENDSEC
  0
SECTION
  2
OBJECTS
  0
DICTIONARY
  5
16F
100
AcDbDictionary
280
     0
281
     1
  3
ACAD_GROUP
350
170
  3
ACAD_MLINESTYLE
350
171
  0
DICTIONARY
  5
170
102
{ACAD_REACTORS
330
16F
102
}
100
AcDbDictionary
280
     0
281
     1
  0
DICTIONARY
  5
171
102
{ACAD_REACTORS
330
16F
102
}
100
AcDbDictionary
280
     0
281
     1
  3
Standard
350
172
  0
MLINESTYLE
  5
172
102
{ACAD_REACTORS
330
171
102
}
100
AcDbMlineStyle
  2
Standard
 70
     0
  3

 62
     0
 51
90.0
 52
90.0
 71
     2
 49
0.5
 62
   256
  6
ByLayer
 49
-0.5
 62
   256
  6
ByLayer
  0
ENDSEC
  0
EOF
